Oops, an error
Loading. Please wait.

Danger Tab

ver2
ver2

Whole song

Interactive

More versions @911Tabs.com
2,139 views 9 this week
2 commentsread comments
1 2 3 4 5
accurate
x 3
Autoscroll
+/-
esc
set tempo
stop
WARNING: You are trying to view
                                    content from Ultimate-Guitar.com
                                    in an unauthorized application,
                                    which is prohibited.

                                    Please use an official Ultimate
                                    Guitar Tabs application for iPhone,
                                    iPad or Android to access legitimate
                                    chords, guitar, bass, and drum tabs
                                    from Ultimate-Guitar.com database.

                                    Type "ultimate guitar tabs" in Apple
                                    App Store's or Android Market's
                                    search to find the application.
Motley Crue- Danger.
Tabbed by Storm- Sleazystreak@teenagedirtbag.com.
  
 Danger
    Motley Crue
                                       
Listen to song for timing


   
||-----------------------|-----------------------|-----------1-----------|------
||--------4--3--4--------|--------4--3--4--------|--------1--------------|------
||-----------------5-----|-----------------5-----|--------------4--1-----|------
||-----5-----------------|-----5--------------5--|-----3-----------------|------
||--3-----------------5--|-----------------------|--0-----------------3--|------
||-----------------------|--6--------------------|-----------------------|------
                                                                                


---------------------|-----------------------|-----------------------|----------
---------------------|--------4--3--4--------|--------4--3--4--------|----------
---------------------|-----------------5-----|-----------------5-----|----------
------3--------3--7--|-----5-----------------|-----5--------------5--|-----3----
---3--------3--------|--3-----------------5--|-----------------------|--0-------
4--------5-----------|-----------------------|--6--------------------|----------
                                                                                

  
---1-----------|--------|--------|-----------------------|----------------------
1--------------|--------|--------|--------4--3--4--------|--------4--3--4-------
------4--1-----|--------|--------|-----------------5-----|-----------------5----
---------------|--------|--------|-----5-----------------|-----5----------------
------------3--|--------|-----4--|--3-----------------5--|----------------------
---------------|--4--5--|--6-----|-----------------------|--6-------------------
                                                                                

  
---|-----------1-----------|-----------------------|-----------------------|----
---|--------1--------------|-----------------------|--------4--3--4--------|----
---|--------------4--1-----|-----------------------|-----------------5-----|----
5--|-----3-----------------|--------3--------3--7--|-----5-----------------|----
---|--0-----------------3--|-----3--------3--------|--3-----------------5--|----
---|-----------------------|--4--------5-----------|-----------------------|----
                                                                                


---------------------|-----------1-----------|-----------------------|----------
------4--3--4--------|--------1--------------|-----------------------|----------
---------------5-----|--------------4--1-----|-----------------------|----------
---5--------------5--|-----3-----------------|--------3--------3--7--|-----5----
---------------------|--0-----------------3--|-----3--------3--------|--3-------
6--------------------|-----------------------|--4--------5-----------|----------
                                                                                


---------------|-----------------------|-----------1-----------|----------------
4--3--4--------|--------4--3--4--------|--------1--------------|----------------
---------5-----|-----------------5-----|--------------4--1-----|----------------
---------------|-----5--------------5--|-----3-----------------|--------3-------
------------5--|-----------------------|--0-----------------3--|-----3----------
---------------|--6--------------------|-----------------------|--4--------5----
                                                                                


---------|-----------------------|-----------------------|-----------1----------
---------|--------4--3--4--------|--------4--3--4--------|--------1-------------
---------|-----------------5-----|-----------------5-----|--------------4--1----
---3--7--|-----5-----------------|-----5--------------5--|-----3----------------
3--------|--3-----------------5--|-----------------------|--0-------------------
---------|-----------------------|--6--------------------|----------------------
                                                                                


---|--------|--------|-----r-----r-----r-----r--|-----------r-----r-----r--|----
---|--------|--------|-----e-----e-----e-----e--|-----------e-----e-----e--|----
---|--------|--------|--5--s--5--s--5--s--5--s--|--5--5--5--s--5--s--5--s--|----
---|--------|--------|--5--t--5--t--5--t--5--t--|--5--6--6--t--6--t--6--t--|----
3--|--------|-----4--|--------------------------|--------------------------|----
---|--4--5--|--6-----|--------------------------|--------------------------|----
                                                                                

  
---------r-----r-----r--|--------------------------|-----r-----r-----r-----r----
---------e-----e-----e--|--------------------------|-----e-----e-----e-----e----
5--5--5--s--5--s--5--s--|--------------------------|--5--s--5--s--5--s--5--s----
6--7--7--t--7--t--7--t--|--------------------------|--5--t--5--t--5--t--5--t----
------------------------|-----------5--6--5--------|----------------------------
------------------------|--8--6--8-----------8--6--|----------------------------
                                                                                

 
|-----------r-----r-----r--|-----------r-----r-----r--|-------------------------
|-----------e-----e-----e--|-----------e-----e-----e--|-------------------------
|--5--5--5--s--5--s--5--s--|--5--5--5--s--5--s--5--s--|-------------------------
|--5--6--6--t--6--t--6--t--|--6--7--7--t--7--t--7--t--|-------------------------
|--------------------------|--------------------------|-----------5--6--5-------
|--------------------------|--------------------------|--8--6--8-----------8----
                                                                                

  
---|--------------------|--------------------------|--------------------|-------
---|--------------------|--------------------------|--------------------|-------
---|--3--3--3--5--3--5--|--------------------------|--3--3--3--5--3--5--|-------
---|--3--3--3--5--3--5--|--------------------------|--3--3--3--5--3--5--|-------
---|--------------------|--------------------------|--------------------|-------
6--|--------------------|--1--3--4--6--4--6--4--3--|--------------------|--1----
                                                                                


------------|--------------------|--------------------------|-------------------
------------|--------------------|--------------------------|-------------------
------------|--3--3--3--5--3--5--|--------------------------|--3--3--3--5--3----
------------|--3--3--3--5--3--5--|--------------------------|--3--3--3--5--3----
------------|--------------------|--------------------------|-------------------
3--4--3~~~--|--------------------|--1--3--4--6--4--6--4--3--|-------------------
                                                                                


---|-----------------|-----------------------|-----------------------|----------
---|-----------------|--------4--3--4--------|--------4--3--4--------|----------
5--|-----------------|-----------------5-----|-----------------5-----|----------
5--|-----------------|-----5-----------------|-----5--------------5--|-----3----
---|-----------------|--3-----------------5--|-----------------------|--0-------
---|--1--3--4--3~~~--|-----------------------|--6--------------------|----------
                                                                                


---1-----------|--------|--------|-----------------------|----------------------
1--------------|--------|--------|--------4--3--4--------|--------4--3--4-------
------4--1-----|--------|--------|-----------------5-----|-----------------5----
---------------|--------|--------|-----5-----------------|-----5----------------
------------3--|--------|-----4--|--3-----------------5--|----------------------
---------------|--4--5--|--6-----|-----------------------|--6-------------------
                                                                                

  
---|-----------1-----------|-----------------------|-----------------------|----
---|--------1--------------|-----------------------|--------4--3--4--------|----
---|--------------4--1-----|-----------------------|-----------------5-----|----
5--|-----3-----------------|--------3--------3--7--|-----5-----------------|----
---|--0-----------------3--|-----3--------3--------|--3-----------------5--|----
---|-----------------------|--4--------5-----------|-----------------------|----
                                                                                


---------------------|-----------1-----------|--------|--------|-----r-----r----
------4--3--4--------|--------1--------------|--------|--------|-----e-----e----
---------------5-----|--------------4--1-----|--------|--------|--5--s--5--s----
---5--------------5--|-----3-----------------|--------|--------|--5--t--5--t----
---------------------|--0-----------------3--|--------|-----4--|----------------
6--------------------|-----------------------|--4--5--|--6-----|----------------
                                                                                

  
---r-----r--|-----------r-----r-----r--|-----------r-----r-----r--|-------------
---e-----e--|-----------e-----e-----e--|-----------e-----e-----e--|-------------
5--s--5--s--|--5--5--5--s--5--s--5--s--|--5--5--5--s--5--s--5--s--|-------------
5--t--5--t--|--5--6--6--t--6--t--6--t--|--6--7--7--t--7--t--7--t--|-------------
------------|--------------------------|--------------------------|-------------
------------|--------------------------|--------------------------|--8--6--8----
                                                                                


---------------|-----r-----r-----r-----r--|-----------r-----r-----r--|----------
---------------|-----e-----e-----e-----e--|-----------e-----e-----e--|----------
---------------|--5--s--5--s--5--s--5--s--|--5--5--5--s--5--s--5--s--|--5--5----
---------------|--5--t--5--t--5--t--5--t--|--5--6--6--t--6--t--6--t--|--6--7----
5--6--5--------|--------------------------|--------------------------|----------
---------8--6--|--------------------------|--------------------------|----------
                                                                                


---r-----r-----r--|--------------------------|--------------------|-------------
---e-----e-----e--|--------------------------|--------------------|-------------
5--s--5--s--5--s--|--------------------------|--3--3--3--5--3--5--|-------------
7--t--7--t--7--t--|--------------------------|--3--3--3--5--3--5--|-------------
------------------|-----------5--6--5--------|--------------------|-------------
------------------|--8--6--8-----------8--6--|--------------------|--1--3--4----
                                                                                


---------------|--------------------|-----------------|--------------------|----
---------------|--------------------|-----------------|--------------------|----
---------------|--3--3--3--5--3--5--|-----------------|--3--3--3--5--3--5--|----
---------------|--3--3--3--5--3--5--|-----------------|--3--3--3--5--3--5--|----
---------------|--------------------|-----------------|--------------------|----
6--4--6--4--3--|--------------------|--1--3--4--3~~~--|--------------------|----
                                                                                


------------------------|--------------------|----------------|-----------------
------------------------|--------------------|----------------|-----------------
------------------------|--3--3--3--5--3--5--|----------------|--3--3--3--5-----
------------------------|--3--3--3--5--3--5--|----------------|--3--3--3--5-----
------------------------|--------------------|----------------|-----------------
1--3--4--6--4--6--4--3--|--------------------|--1--3--4--3p3--|-----------------
                                                                                


------|--------------------------|--------------------|----------------|--------
------|--------------------------|--------------------|----------------|--------
3--5--|--------------------------|--3--3--3--5--3--5--|----------------|--3-----
3--5--|--------------------------|--3--3--3--5--3--5--|----------------|--3-----
------|--------------------------|--------------------|----------------|--------
------|--1--3--4--6--4--6--4--3--|--------------------|--1--3--4--3p3--|--------
                                                                                


---------------|--------------------------|--------------------|----------------
---------------|--------------------------|--------------------|----------------
3--3--5--3--5--|--------------------------|--3--3--3--5--3--5--|----------------
3--3--5--3--5--|--------------------------|--3--3--3--5--3--5--|----------------
---------------|--------------------------|--------------------|----------------
---------------|--1--3--4--6--4--6--4--3--|--------------------|--1--3--4--3----
                                                                                


----|-----r-----r-----r-----r--|-----------r-----r-----r--|-----------r---------
----|-----e-----e-----e-----e--|-----------e-----e-----e--|-----------e---------
----|--5--s--5--s--5--s--5--s--|--5--5--5--s--5--s--5--s--|--5--5--5--s--5------
----|--5--t--5--t--5--t--5--t--|--5--6--6--t--6--t--6--t--|--6--7--7--t--7------
----|--------------------------|--------------------------|---------------------
p3--|--------------------------|--------------------------|---------------------
                                                                                

                 
r-----r--|--------------------------|-----------------||------------------------
e-----e--|--------------------------|-----------------||------------------------
s--5--s--|--------------------------|--3--3--5--3--5--||------------------------
t--7--t--|--------------------------|--3--3--5--3--5--||------------------------
---------|-----------5--6--5--------|-----------------||------------------------
---------|--8--6--8-----------8--6--|-----------------||------------------------
  
 
:: Ultimate Guitar Archive :: 
http://www.ultimate-guitar.com 

comments
We did not receive enough feedback on this tab! Please rate:
print report bad tab
1 2 3 4 5
2 comments total.
0 reply
verldaddy wrote on April 3 2002, 12:00 am

what is the tuning

0 reply
MaggaraMarine wrote on May 28 2011, 11:13 am

The tuning is wrong. It should be D-standard. And there's plenty of wrong notes. Why has this got 5 stars (by 2 users)? This tab is hardly worth 3 stars.

I want to post or [tab]
guest
You may want to rate the tab now too:
select rating
Please do not post tabs as comments. Select "correction" instead!