Oops, an error
Loading. Please wait.

Dont Go Away Mad Just Go Away Tab

ver2
ver2

Whole song

More versions @911Tabs.com
5,149 views 3 this week
no commentswrite comment
1 2 3 4 5
excellent!
x 1
Autoscroll
+/-
esc
set tempo
stop
Contributor
WARNING: You are trying to view
                                    content from Ultimate-Guitar.com
                                    in an unauthorized application,
                                    which is prohibited.

                                    Please use an official Ultimate
                                    Guitar Tabs application for iPhone,
                                    iPad or Android to access legitimate
                                    chords, guitar, bass, and drum tabs
                                    from Ultimate-Guitar.com database.

                                    Type "ultimate guitar tabs" in Apple
                                    App Store's or Android Market's
                                    search to find the application.
h- hammer on
p- pull off
<#>- < and > placed around a number is for tremolo picking
/-slide up
\-slide down
^-bend (Sorry I don't have 1/2bend whole bend etc.)
||: - repeat sign
|1.- first ending (seccond ending, third ending etc.)
tr- trill


For Intro- Acoustic Guitar 1 (12 String)
For Rhythem Figure 1- Top- Acoustic Guitar 1 (12 String)
                      Bottom- Electric Guitar 2
For Verse- Top- Electric Guitar 3
           Bottom- Electric Gutiar 2
For Rhythem Figure 2- Acoustic Guitar 1 (Chords) + Electric Guitar 1 (Lead)
For Bridge- Play Rhythem Figure 2.
For Chorus- It's just all chords, so I'm not doing a tab chart.
For Chorus2- Top- Electric Guitar 2
             Bottom- Electric Guitar 1
For Interlude- Again, all chords.
For Chorus3- Starts all chords, then adds in lead stuff.
For Outro Chorus- It's pretty self explanitory.


*INTRO*
   D5                                 E5
e||----2-----0-----|-3-----2-----0---|---2-----0-----|-2-----0---------|
B||-3----3-----3---|---3-----3-----0-|-----0-----0---|---0-----0-------|
G||-2------2-----2-|-----2-----2-----|-------------0-|-----0-----0-----|
D||-0--------------|-----------------|-2-----2-------|-------------2-4-|
A||----------------|-----------------|---------------|-----------------|
E||----------------|-----------------|---------------|-----------------|
                                                Oh, yeah, yeah, yeah,yeah.___
  G5                              D5
e|---3-----3-----|-3-----3-----3-|-3-2-0-2-------|----------------||
B|-----3-----3---|---3-----3-0---|-3-3-3-3-------|----------------||
G|-0-----0-----0-|-----0---------|-2-2-2-2-------|----------------||
D|---------------|---------------|-0-0-0-0-------|----------------||
A|---------------|---------------|---------------|----------------||
E|---------------|---------------|---------------|----------------||
 |__________     |               |               |      One time! ||

   
*Rhythem Figure 1*
  D5                E5              G5              D5
e|-----2-----2-0-0-|-----2---2-0-0-|-----3---3---0-|-------2---2-3-0---|
B|-3---3-----3-3-3-|---0-0---0-0-0-|-3-3-3-3-3-3-0-|-3---3-3---3-3-3---|
G|-2---2-----2-2-2-|---0-0---0-0-0-|-0-0-0-0-0-0-0-|-2---2-2---2-2-2---|
D|-0---0-----0-0-0-|-2-2-2---2-2-2-|-0-0-0-0-0-0-0-|-0---0-0---0-0-----|
A|-----------------|-2-2-------2---|-2-2---2---2---|-------------------|
E|-----------------|-0-0-------0---|-3-3---3---3---|-------------------|
 |                 |               |               |                   |
e|-----------------|---------------|---------------|-------------------|
B|-----------------|---------------|---------------|-------------------|
G|-----------------|---------------|---------------|-------------------|
D|-----------------|---------------|---------------|---------------9-9-|
A|-----------------|---------------|---------------|-------------------|
E|-----------------|---------------|---------------|-------------------|

  D5              E5                G5                  D5
e|---2---2---0-0-|-------2---2-0-0-|---------3---3---0-|-2-------------|
B|-3-3---3---3-3-|-----0-0---0-0-0-|-3-----3-3-3-3-3-0-|-3-------------|
G|-2-2---2---2-2-|-----0-0---0-0-0-|-0-----0-0-0-0-0-0-|-2-------------|
D|-0-0---0---0-0-|-2---2-2---2-2-2-|-0-----0-0-0-0-0-0-|-0-------------|
A|---------------|-2---2-------2---|-2-----2---2---2---|---------------|
E|---------------|-0---0-------0---|-3-----3---3---3---|---------------|
 |               |                 |                   |               |
e|---------------|-----------------|---------------10^1|---------------|
B|---------------|-----------------|-7^1/2---7---------|---------------|
G|-7---------7---|-9^1-----------7-|-------------------|---------------|
D|-------7-9---9-|-----------------|-------------------|---------------|
A|---------------|-----------------|-------------------|---------------|
E|---------------|-----------------|-------------------|---------------|


*Verse*
                  E5                  G5              D5
e||-------5-----2--|-----5-----2-------|-----5----3----|-------2-3-0-2--|
B||X------3--------|-----3-------------|-----3---------|-------3-3---3--|
G||-------2--------|-----4---------4---|-----4---------|-------2-2---2--|
D||-------0--------|-----0-------------|-----0---------|-0-----0-0---0--|
A||X---------------|-------------------|---------------|----------------|
E||----------------|-------------------|---------------|----------------|
 ||                |                   |               |                |
e||----------------|-------------------|---------------|-----------10^--|
B||X---------------|-------------------|---------------|----------------|
G||----------------|-------------------|---------------|----------------|
D||----------------|-------------------|---------------|----------------|
A||X---------------|-------------------|---------------|----------------|
E||----------------|-------------------|---------------|----------------|

                                                 ________________
                                                |1.
  D5             E5             G5              D5
e|----5---2-----|---5-----2----|------5--3-----|-----------------||
B|----3---------|---3----------|------3--0-----|----------------X||
G|----2---------|---4--------4-|------4--0-----|-----------------||
D|----0---------|---0----------|------0--------|-----------------||
A|--------------|--------------|---------------|----------------X||
E|--------------|--------------|---------------|-----------------||
 |              |              |               |                 ||
e|--------------|--------------|---------------|-----------------||
B|-(10)---------|--------------|------------10-|----------------X||
G|--------------|------9^------|--(9)----------|-----------------||
D|--------------|--------------|---------------|-----------------||
A|--------------|--------------|---------------|----------------X||
E|--------------|--------------|---------------|-----------------||


   _____________
  |2.3.
  D5
e|-------------||
B|-------------||
G|-------------||
D|-------------||
A|-------------||
E|-------------||
 |             ||
e|10-----------||
B|-------------||
G|-------------||
D|-------------||
A|-------------||
E|-------------||



*Rhythem Figure 2*
 
    C           G                D           Dsus D Dsus2 D
e||-----------------|---------------|-----------------------|
B||X----------------|---------------|-----------------------|
G||-----------------|-------------2-|-----------------------|
D||-----------------|-------------0-|-----------------------|
A||X-3--3--3-2-0----|-------------0-|-----------------------|
E||---------------5-|---5---5-4-2-0-|-----------------------|
                                     _________________________________
                                     |1.
     Dsus  D Dsus2  C             G               D   C
e|----------------|-----------------|---------------|----------------|
B|----------------|-----------------|---------------|----------------|
G|----------------|-----------------|---------------|-7------------7-|
D|----------------|-----------------|---------------|----------7/9---|
A|-----------0--2-|-3---3---3-2-0---|---------------|----------------|
E|----------------|---------------5-|-----5---5-4-0-|----------------|
  _________________________________________________    ______
 |1. (Ctd.)                                           |2.
  Em              G                      D                    D
e|---------------|--10------------------|----------|| |------|------|------|
B|---------------|-----10---------------|---------X|| |------|------|------|
G|-9^(9)---------|--------9^----(9)-7---|-9^-------|| |------|------|------|
D|---------------|--------------------9-|----------|| |------|------|------|
A|---------------|----------------------|---------X|| |------|------|------|
E|---------------|----------------------|----------|| |------|------|------|

  C                         G                             D
e|-------14----15-14-------|------15----17-15------------|------|------|
B|----15----15-------15----|---------15-------17^(17)p15-|------|------|
G|-14-------------------/16|---16------------------------|------|------|
D|-------------------------|-----------------------------|------|------|
A|-------------------------|-----------------------------|------|------|
E|-------------------------|-----------------------------|------|------|

  C                         G                   A5            G/A
e|--15h14----17--15-14-15--|--14----17--15-----|------------------|--------||
B|--------15---------------|-----15--------17^-|---(17)-----------|----15\-||
G|-------------------------|-------------------|------------------|--------||
D|-------------------------|-------------------|------------------|--------||
A|-------------------------|-------------------|------------------|--------||
E|-------------------------|-------------------|------------------|--------||


*Chorus*

|D  G    D  E| A    E  G |   C   G  D|  G   D   |  G   D  E |  A  E G|

|   C   G   D|  G   D    |


*Guitar Solo*

  G          D    E       A       E   G             C   G      D
e|--------------------|-19^(19)-------19-22-|-24^---24^---------------|
B|--------------15-17-|---------------------|--------------12-15^--15-|
G|-----------16-------|---------------------|-------------------------|
D|--12----------------|---------------------|-------------------------|
A|--------------------|---------------------|-------------------------|
E|--------------------|---------------------|-------------------------|

                               G         D     E           A    E    G
e|----------------------------|--------------------|-----14-15-17--------|
B|----------------------15----|-15-----------15-17-|-17^----------15--15-|
G|----------------14/16----16-|--------14/16-------|---------------------|
D|----------------------------|--------------------|---------------------|
A|----------------------------|--------------------|---------------------|
E|-12^(12)-12^----------------|--------------------|---------------------|

          C        G       D                 G            D
e|-17^---17^----17^--(17)--14-|-15--14h15p14\12-12h14p12\10--10--10---|
B|----------------------------|---------------------------------------|
G|----------------------------|---------------------------------------|
D|----------------------------|---------------------------------------|
A|----------------------------|---------------------------------------|
E|----------------------------|---------------------------------------|

               G                 D           E
e|-10-----10-----10-----10------10-10-------10-10-|
B|----13^----13^----13^-----13^-------13^---------|
G|------------------------------------------------|
D|------------------------------------------------|
A|------------------------------------------------|
E|------------------------------------------------|

             A              E      G
e|-----10-10-----10-10--------10-------|
B|-13^-------13^-------13^-------13-10-|
G|-------------------------------------|
D|-------------------------------------|
A|-------------------------------------|
E|-------------------------------------|

        C                G           D                   G     D
e|-----------------------------------------|--------------------------|
B|-13^-13-12-10-------10-------------10----|------------------------X-|
G|--------------13-12----13-12-10-12----10-|--------------------------|
D|-----------------------------------------|-12-10---------/10--------|
A|-----------------------------------------|-------12-10-8------------|
E|-----------------------------------------|--------------------------|

             G         D     E              A        E          G
e|-12-10-12-14-12-14-15-14-15-<17>-|-<19>-<17>-<19>-<21>-<19>-<21>-|
B|---------------------------------|-------------------------------|
G|---------------------------------|-------------------------------|
D|---------------------------------|-------------------------------|
A|---------------------------------|-------------------------------|
E|---------------------------------|-------------------------------|

       C  G         D     G  D
e|-<22>-----22^-22^---|-22------|
B|--------------------|---------|
G|--------------------|---------|
D|--------------------|---------|
A|--------------------|---------|
E|--------------------|---------|



*Chorus2*
    D    A/D       G/D  D       D     A/D        G/D   D 
e|--10-----9-------|-7----5-----|-10-----9------|-7-----5--------|
B|--10-----10------|-8----7-----|-10-----10-----|-8-----7--------|
G|--11-----9-------|-7----7-----|-11-----9------|-7-----7--------|
D|---0--0--------0-|----0-----0-|-----0-------0-|----0---------0-|
A|-----------------|------------|---------------|----------------|
E|-----------------|------------|---------------|----------------|
 |                 |            |               |                |
e|-----------------|-(22)\------|---------------|----------------|
B|-----------------|------------|---------------|----------------|
G|-----------------|------------|---------------|----------------|
D|-----------------|------------|---------------|----------------|
A|-----------------|------------|---------------|----------------|
E|-----------------|------------|---------------|----------------|

  D       A/D        G/D       D
e|-10-------9---------|--7---------5---------|
B|-10-------10--------|--8---------7---------|
G|-11-------9---------|--7---------7---------|
D|------0-----------0-|--------0-----------0-|
A|--------------------|----------------------|
E|--------------------|----------------------|
 |                    |                      |
e|--------------------|----------------------|
B|-7------------------|-7--------------------|
G|----7------5--------|----7-----5-----------|
D|--------7-----------|------5-----------5---|
A|------------------5-|----------------------|
E|--------------------|----------------------|

  D       A/D        G/D       D               C5    G/B   A5  G5
e|-7--------5---------|--10---------9---------|---------------|-3------|----|
B|-8--------7---------|--10---------10--------|---------------|-3------|----|
G|-7--------7---------|--11---------9---------|---------------|-0------|----|
D|------0-----------0-|---------0-----------0-|-5-5-5-5-5-5-2-|-0------|----|
A|--------------------|-----------------------|-3-3-3-2-2-2-0-|--------|--x\|
E|--------------------|-----------------------|---------------|-3------|----|
 |                    |                       |               |        |
e|--------------------|-----------------------|-14----15---12-|--------|----|
B|-7-------------7----|-7---------------------|---------------|-15-----|----|
G|----7------5--------|----7------7-----------|---------------|--------|----|
D|--------7-----------|------7----------------|---------------|--------|----|
A|------------------5-|-----------------------|---------------|--------|----|
E|--------------------|-----------------------|---------------|--------|----|


*Interlude*

|D  G   D   E |   A  E  G |  C  G  D |   D   D  |  G  D  E|


*Chorus3*

||: G  D  E|  A  E  G |  C  G  D |   G  D  | G  D E|  A E  G|

                   ____________    ___________
                  |1.          |  |2.
      C    G   D       G  D              G      D
e|---------------|------------|| ||-----------------------------||
B|---------------|-----------X|| ||-----------------------15----||
G|---7-9^------7-|------------|| ||-9^-9^-(9)-7-9^-14/16-----16-||
D|---------------|------------|| ||-----------------------------||
A|---------------|-----------X|| ||-----------------------------||
E|---------------|------------|| ||-----------------------------||

*Outro Chorus*

       G       D       E        A E    G
e|-----------------------|-17^-----(19)p17-15-|
B|-15\\\\\\7-------15-15-|--------------------|
G|-----------14/16-------|--------------------|
D|-----------------------|--------------------|
A|-----------------------|--------------------|
E|-----------------------|--------------------|

                C                     G
e|--17-15p17h15\14- 14h15p14\12-12/15---12-|
B|-----------------------------------------|
G|-----------------------------------------|
D|-----------------------------------------|
A|-----------------------------------------|
E|-----------------------------------------|

                 G           D                 G         D      E
e|-10-12-14h15p14-14-12-14-12\10---------|-----10-10--------------|
B|---------------------------------13-10-|-13^-------13^----13-10-|
G|---------------------------------------|------------------------|
D|---------------------------------------|------------------------|
A|---------------------------------------|------------------------|
E|---------------------------------------|------------------------|


          A             E    G       C    G         
e|------------------------------|-22^-22^---22^--22^--|
B|----10------------------------|---------------------|
G|-13----13-11---10-12^----12^--|---------------------|
D|------------------------------|---------------------|
A|------------------------------|---------------------|
E|------------------------------|---------------------|


  D
e|-22--19-19h21p19\17-17h19p17\15-15h17p14-14h15p14h12-12h14p12-|
B|--------------------------------------------------------------|
G|--------------------------------------------------------------|
D|--------------------------------------------------------------|
A|--------------------------------------------------------------|
E|--------------------------------------------------------------|



e|-10--(10)-12tr10-|------||
B|-----------------|------||
G|-----------------|------||
D|-----------------|------||
A|-----------------|------||
E|-----------------|------||


Just listen to the song for where lyrics line up, repeats, etc.
comments
We did not receive enough feedback on this tab! Please rate:
1 2 3 4 5
I want to post or [tab]
guest
You may want to rate the tab now too:
select rating
Please do not post tabs as comments. Select "correction" instead!