Oops, an error
Loading. Please wait.

Dr Feel Good Tab

27,078 views 39 this week
2 commentsread comments
1 2 3 4 5
excellent!
x 4
Autoscroll
+/-
esc
set tempo
stop
Contributor
Hey! There's an official Ultimate Guitar app which is ideal
for learning songs when you're away from computer. Get the app
WARNING: You are trying to view
                                    content from Ultimate-Guitar.com
                                    in an unauthorized application,
                                    which is prohibited.

                                    Please use an official Ultimate
                                    Guitar Tabs application for iPhone,
                                    iPad or Android to access legitimate
                                    chords, guitar, bass, and drum tabs
                                    from Ultimate-Guitar.com database.

                                    Type "ultimate guitar tabs" in Apple
                                    App Store's or Android Market's
                                    search to find the application.
Just a collection of the best tabs on the net. Enjoy!

T.N.T. transcribed by Andrew Zara

drop d tuning

/-slide
x-palm mute

Gtr 2
d---------------------------------|
g---------------------------------|
c--0--------------------2---------|
f--0--------------------2------2--|
a--x--------------------0------2--|
d--3---------------------------0--|

Gtr 1
d-15/18-18-18-15-15-15-12-12-12-----------------------------------------|
g-------------------------------14-14-14-11-11-11-----------------------|
c--------------------------------------------------12-12-12-9-9-9-6-6-6-|
f-----------------------------------------------------------------------|
a-----------------------------------------------------------------------|
d-----------------------------------------------------------------------|

                                    w/bar bend down slow then come up slow
d--------------------------------------------||--|
g--------------------------------------------/---|
c--------------------------------------------9---|
f--8-8-8-5-5-5-------------------------------9---|
a--------------9-9-9-4-4-4-------------------7---|
d---------------------------6-6-6-3-3-3-0----0---|

Gtr 2                            play on the last open d of gtr 1
d---------------------------------------------|
g---------------------------------------------|
c---------------------------------------9-----|
f---------------------------------------9-----|
a---------------------------------------7-----|
d---------------------------------------------|

DR. FEELGOOD transcribed by njc69

drop d on all guitars

Intro
  Heavy Rock Q=109
 4/4
  Gtr I
     PM--------------------------
   E.S    +S  S E E E E E E S S
|------||-----------------------|
|------||-----------------------|
|------||-----------------------|
|------||-----------------------|
|------||-----------------------|
|-15S0-||-(0)-0-0-0-0-0-0-0-0-0-|
|
| Gtr II
|    PM--------------------------
|  E.S    +S  S E E E E E E S S
|------||-----------------------|
|------||-----------------------|
|------||-----------------------|
|------||-----------------------|
|------||-----------------------|
|-15S0-||-(0)-0-0-0-0-0-0-0-0-0-|


 ---------------------------------------------|
  +S  S E E E E E E S S   +S  S E E E E E E S S
|-----------------------|------------------------|
|-----------------------|------------------------|
|-----------------------|------------------------|
|-----------------------|------------------------|
|-----------------------|------------------------|
|-(0)-0-0-0-0-0-0-0-0-0-|-(0)-0-0-0-0-0-0-0-0-0--|
|
|---------------------------------------------|
| +S  S E E E E E E S S   +S  S E E E E E E S S
|-----------------------|------------------------|
|-----------------------|------------------------|
|-----------------------|------------------------|
|-----------------------|------------------------|
|-----------------------|------------------------|
|-(0)-0-0-0-0-0-0-0-0-0-|-(0)-0-0-0-0-0-0-0-0-0--|


   PM-------------------------------------------------------------------
  +S  S E E E E E E S   S      +S     S E    E   E    E   E E    S   S
|--------------------------|-------------------------------------------|
|--------------------------|-------------------------------------------|
|--------------------------|-------------------------------------------|
|--------------------------|-------------------------------------------|
|--------------------------|-------------------------------------------|
|-(0)-0-0-0-0-0-0-0-0---0--|---(0)----0-0----0---0----0---0-0----0---0-|
|
|                               \0.5_________\1_______/
|  PM---------------|
| +S  S E E E E E E S   S      +Q           +Q       +Q.        +E
|--------------------------|-------------------------------------------|
|--------------------------|-------------------------------------------|
|--------------------------|-------------------------------------------|
|--------------------------|-------------------------------------------|
|---------------------<12>-|-(<12>)-------(<12>)---(<12>)-----(<12>)---|
|-(0)-0-0-0-0-0-0-0-0------|-------------------------------------------|


 ----------------------------------------------------------|
    +S     S    E     E    E      E        E      E    S   S
|------------------------------------------------------------|
|------------------------------------------------------------|
|------------------------------------------------------------|
|------------------------------------------------------------|
|------------------------------------------------------------|
|---(0)----0----0-----0----0------0--------0------0----0---0-|
|
|    \0.5_______/0.5_______\1_____\1.5_____/           \2/
|   +E         +Q         +E     +E       +E     +E    E
|------------------------------------------------------------|
|------------------------------------------------------------|
|-----------------------------------------------------<7>----|
|------------------------------------------------------------|
|-(<12>)-----(<12>)-----(<12>)-(<12>)---(<12>)-(<12>)--------|
|------------------------------------------------------------|


    PM---------------------------------------------------------------------------------------------------
   +S   S   E     E     E     E     E     E   S  S     +S   S   E     E     E     E     E     E   S  S
|---------------------------------------------------|---------------------------------------------------|
|---------------------------------------------------|---------------------------------------------------|
|---------------------------------------------------|---------------------------------------------------|
|---------------------------------------------------|---------------------------------------------------|
|---------------------------------------------------|---------------------------------------------------|
|--(0)--0---0-----0-----0-----0-----0-----0---0--0--|--(0)--0---0-----0-----0-----0-----0-----0---0--0--|
|
|   \2/     \2/   \2/   \2/   \2/   \2/   \2/                   \2/   \2/   \2/   \2/   \2/   \2/
|  +E      +E    +E    +E    +E    +E    +E   S  S     +E      +E    +E    +E    +E    +E    +E   S  S
|---------------------------------------------------|---------------------------------------------------|
|---------------------------------------------------|---------------------------------------------------|
|-(<7>)---(<7>)-(<7>)-(<7>)-(<7>)-(<7>)-(<7>)---<5>-|-(<5>)---(<5>)-(<5>)-(<5>)-(<5>)-(<5>)-(<5>)---<7>-|
|-----------------------------------------------<5>-|-(<5>)---(<5>)-(<5>)-(<5>)-(<5>)-(<5>)-(<5>)-------|
|---------------------------------------------------|---------------------------------------------------|
|---------------------------------------------------|---------------------------------------------------|


 -----------------------------------------------|
   +S   S   E     E     E     E     E     E   S   S
|----------------------------------------------------|
|----------------------------------------------------|
|----------------------------------------------------|
|----------------------------------------------------|
|----------------------------------------------------|
|--(0)--0---0-----0-----0-----0-----0-----0---0---0--|
|
|           \2/   \2/   \2/   \2/   \2/   \2/
|  +E      +E    +E    +E    +E    +E    +E   S   S
|----------------------------------------------------|
|----------------------------------------------------|
|-(<7>)---(<7>)-(<7>)-(<7>)-(<7>)-(<7>)-(<7>)---<12>-|
|-----------------------------------------------<12>-|
|----------------------------------------------------|
|----------------------------------------------------|


     PM-----------------------------------------------------
    +S   S    E      E      E      E      E      E   S  S
|----------------------------------------------------------|
|----------------------------------------------------------|
|----------------------------------------------------------|
|----------------------------------------------------------|
|----------------------------------------------------------|
|---(0)--0----0------0------0------0------0------0---0--0--|
|
|             \2/    \2/    \2/    \2/    \2/    \2/
|   +E       +E     +E     +E     +E     +E     +E   S  S
|----------------------------------------------------------|
|----------------------------------------------------------|
|-(<12>)---(<12>)-(<12>)-(<12>)-(<12>)-(<12>)-(<12>)---<7>-|
|-(<12>)---(<12>)-(<12>)-(<12>)-(<12>)-(<12>)-(<12>)---<7>-|
|----------------------------------------------------------|
|----------------------------------------------------------|


 ---------------------------------------------------------------------------------------------------|
   +S   S   E     E     E     E     E     E   S  S     +S   S   E     E     E     E     E     E   S  S
|---------------------------------------------------|---------------------------------------------------|
|---------------------------------------------------|---------------------------------------------------|
|---------------------------------------------------|---------------------------------------------------|
|---------------------------------------------------|---------------------------------------------------|
|---------------------------------------------------|---------------------------------------------------|
|--(0)--0---0-----0-----0-----0-----0-----0---0--0--|--(0)--0---0-----0-----0-----0-----0-----0---0--0--|
|
|           \2/   \2/   \2/   \2/   \2/   \2/                   \2/   \2/   \2/   \2/   \2/   \2/
|  +E      +E    +E    +E    +E    +E    +E   S  S     +E      +E    +E    +E    +E    +E    +E   S  S
|---------------------------------------------------|---------------------------------------------------|
|---------------------------------------------------|---------------------------------------------------|
|-(<7>)---(<7>)-(<7>)-(<7>)-(<7>)-(<7>)-(<7>)---<5>-|-(<5>)---(<5>)-(<5>)-(<5>)-(<5>)-(<5>)-(<5>)---<7>-|
|-(<7>)---(<7>)-(<7>)-(<7>)-(<7>)-(<7>)-(<7>)---<5>-|-(<5>)---(<5>)-(<5>)-(<5>)-(<5>)-(<5>)-(<5>)---<7>-|
|---------------------------------------------------|---------------------------------------------------|
|---------------------------------------------------|---------------------------------------------------|


    PM------------------------------------------------
   +S   S   E     E     E     E     E     E   S   S
|----------------------------------------------------|
|----------------------------------------------------|
|----------------------------------------------------|
|----------------------------------------------------|
|----------------------------------------------------|
|--(0)--0---0-----0-----0-----0-----0-----0---0---0--|
|
|           \2/   \2/   \2/   \2/   \2/   \2/
|  +E      +E    +E    +E    +E    +E    +E   S   S
|----------------------------------------------------|
|----------------------------------------------------|
|-(<7>)---(<7>)-(<7>)-(<7>)-(<7>)-(<7>)-(<7>)---<12>-|
|-(<7>)---(<7>)-(<7>)-(<7>)-(<7>)-(<7>)-(<7>)---<12>-|
|----------------------------------------------------|
|----------------------------------------------------|


 ------------------------|                       PM--------------|        ~~~
    +S   S    E      E      E    Q    E. S      +S   S S S S S S S E S S +E. S
|------------------------------------------||----------------------------------|
|------------------------------------------||o---------------------3---2-(2)---|
|------------------------------------------||----------------------2---2-(2)---|
|------------------------------------------||----------------------------------|
|--------------------------------x\---x\---||o---------------------------------|
|---(0)--0----0------0------0----x\---x\-0-||---(0)--0-2-2-3-3-4-5-----------0-|
|
|             \2/    \2/    \2/       \7
|   +E       +E     +E     +E    Q    Q         +W
|------------------------------------------||----------------------------------|
|------------------------------------------||o---------------------------------|
|-(<12>)---(<12>)-(<12>)-(<12>)-<3>--<3>---||--(<3>)---------------------------|
|-(<12>)---(<12>)-(<12>)-(<12>)------------||----------------------------------|
|------------------------------------------||o---------------------------------|
|------------------------------------------||----------------------------------|


   PM-------------|        ~~~PM------------------|        ~~~PM
  +S  S S S S S S S E S S +E. S   +S  S S S S S S S E S S +E. S
|-------------------------------|-------------------------------|
|-------------------8---8-(8)---|-------------------3---2-(2)---|
|-------------------7---7-(7)---|-------------------2---2-(2)---|
|-------------------6---6-(6)---|-------------------------------|
|-------------------7---7-(7)---|-------------------------------|
|-(0)-0-2-2-3-3-4-5-----------0-|-(0)-0-2-2-3-3-4-5-----------0-|


  1.                               2.
   PM-------------|        ~~~PM--------------------|        ~~~
  +S  S S S S S S S E S S +E. S     +S  S S S S S S S E S S +E. S
|--------------------------------||-------------------------------||
|-------------------8---8-(8)---o||-------------------8---8-(8)---||
|-------------------7---7-(7)----||-------------------7---7-(7)-2-||
|-------------------6---6-(6)----||-------------------6---6-(6)-2-||
|-------------------7---7-(7)---o||-------------------7---7-(7)-0-||
|-(0)-0-2-2-3-3-4-5-----------0--||-(0)-0-2-2-3-3-4-5-------------||


   1st & 2nd Verses
    +E  E S E. Q  E. S   +E  E S E. Q  E. S
||---------------------|--------------------|
||o--------------------|--------------------|
||--(2)---2-2--------2-|-(2)--------------2-|
||--(2)---2-2--------2-|-(2)---2-2--------2-|
||o-(0)---0-0--------0-|-(0)---2-2--------0-|
||------3--------------|-----3-0-0----------|


  +E  E S E. Q  E. S   +E  E S E. Q  E. S
|--------------------|--------------------|
|--------------------|--------------------|
|-(2)---2-2--------2-|-(2)--------------2-|
|-(2)---2-2--------2-|-(2)---2-2--------2-|
|-(0)---0-0--------0-|-(0)---2-2--------0-|
|-----3--------------|-----3-0-0----------|


             PM----|                PM----|
  +E  E S E. E E E S S   +E  E S E. E E E S S
|----------------------|----------------------|
|----------------------|----------------------|
|-(2)---2-2----------2-|-(2)----------------2-|
|-(2)---2-2----------2-|-(2)---2-2----------2-|
|-(0)---0-0--0-0-0-0-0-|-(0)---2-2----------0-|
|-----3----------------|-----3-0-0--0-0-0-0---|


             PM----|                PM------|
  +E  E S E. E E E S S   +E  E S E. E E E S S
|----------------------|-----------------------||
|----------------------|-----------------------||
|-(2)---2-2----------2-|-(2)-------------------||
|-(2)---2-2----------2-|-(2)---2-2-------------||
|-(0)---0-0--0-0-0-0-0-|-(0)---2-2-------------||
|-----3----------------|-----3-0-0--0-0-0-0-0--||


 Chorus
   PM-------------|        ~~~PM------------------|        ~~~
  +S  S S S S S S S E S S +E. S   +S  S S S S S S S E S S +E. S
|-------------------------------|-------------------------------|
|-------------------3---2-(2)---|-------------------8---8-(8)---|
|-------------------2---2-(2)---|-------------------7---7-(7)---|
|-------------------------------|-------------------6---6-(6)---|
|-------------------------------|-------------------7---7-(7)---|
|-(0)-0-2-2-3-3-4-5-----------0-|-(0)-0-2-2-3-3-4-5-----------0-|


                                 1.
   PM-------------|        ~~~PM------------------|        ~~~
  +S  S S S S S S S E S S +E. S   +S  S S S S S S S E S S +E. S
|-------------------------------|--------------------------------||
|-------------------3---2-(2)---|-------------------8---8-(8)---o||
|-------------------2---2-(2)---|-------------------7---7-(7)-2--||
|-------------------------------|-------------------6---6-(6)-2--||
|-------------------------------|-------------------7---7-(7)-0-o||
|-(0)-0-2-2-3-3-4-5-----------0-|-(0)-0-2-2-3-3-4-5--------------||


 2.
   PM-------------|        ~~~
   S  S S S S S S S E S S +E  S S
|---------------------------------|
|-------------------8---8-(8)-----|
|-------------------7---7-(7)-----|
|-------------------6---6-(6)---5-|
|-------------------7---7-(7)---5-|
|-(0)-0-2-2-3-3-4-5-------------3-|


 Bridge
                               PM----------|
  +Q   +E. S +Q   +E. S   +E   E E E E E E S S
|-----------------------|----------------------|
|-----------------------|----------------------|
|---------------------9-|-(9)\-----------------|
|-(5)--(5)-7-(7)--(7)-9-|-(9)\---------------5-|
|-(5)--(5)-7-(7)--(7)-7-|-(7)\---------------5-|
|-(3)--(3)-5-(5)--(5)---|------0-0-0-0-0-0-0-3-|


                               PM----------|
  +Q   +E. S +Q   +E. S   +E   E E E E E E S S
|-----------------------|-----------------------|
|-----------------------|-----------------------|
|---------------------9-|-(9)\------------------|
|-(5)--(5)-7-(7)--(7)-9-|-(9)\---------------5--|
|-(5)--(5)-7-(7)--(7)-7-|-(7)\---------------5--|
|-(3)--(3)-5-(5)--(5)---|------0-0-0-0-0-0-0-3--|


                               PM----------|
  +Q   +E. S +Q   +E. S   +E   E E E E E E S S   +Q   +E. S +H       W
|-----------------------|----------------------|-------------------|------|
|-----------------------|----------------------|-------------------|------|
|---------------------9-|-(9)\-----------------|-------------------|------|
|-(5)--(5)-7-(7)--(7)-9-|-(9)\---------------5-|-(5)--(5)-7-(7)----|-9----|
|-(5)--(5)-7-(7)--(7)-7-|-(7)\---------------5-|-(5)--(5)-7-(7)----|-9----|
|-(3)--(3)-5-(5)--(5)---|------0-0-0-0-0-0-0-3-|-(3)--(3)-5-(5)----|-7----|


           PM|     PM-----
  +H     E S S E.  S
|-----------------------||
|-----------------------||
|-----------------------||
|-(9)----9-x-x-9\-------||
|-(9)----9-x-x-9\-------||
|-(7)----7-x-x-7\--0----||
|
| Gtr II
|  H     Q     E.  S
|-----------------12----||
|-----------------15b17-||
|-----------------------||
|-----------------------||
|-----------------------||
|-----------------------||


 Interlude
 --------------------------|              ~~~           PM
   +S  S S S  S       S  S S   E    S  S +E.            S
|------------------------------------------------------------|
|------------------------------3-------2-(2)-----------------|
|------------------------------2-------2-(2)-----------------|
|------------------------------------------------------------|
|------------------------------------------------------------|
|--(0)-0-2-2--3-------3--4-5----------------------------0----|
|
|                                         |-------6--------|
|  +Q         S      +E.      +E    s  s  S  S  S  S  S    S
|-(12)-------12-----(12)-----------12------------------------|
|-(15)-------15b17==(15)-----(15)r----15-14----12------------|
|-------------------------------------------------15-12h==14-|
|------------------------------------------------------------|
|------------------------------------------------------------|
|------------------------------------------------------------|


   PM-----------------------------------------------|            ~~~ PM----
  +S     S     S     S     S     S               S  S   E   S S +E.  S
|-------------------------------------------------------------------------|
|-------------------------------------------------------8-----8-(8)-------|
|-------------------------------------------------------7-----7-(7)-------|
|-------------------------------------------------------6-----6-(6)-------|
|-------------------------------------------------------7-----7-(7)-------|
|-(0)----0-----2-----2-----3-----3---------------4--5----------------0----|
|
|                                                ~~~~~~~~~~~
|  T  T  T  T  T  T  T  T  T  T  T  T   a       +E     +E   E    E.  S
|-------------------------------------------------------------------15b17-|
|-------------------------------------------------------------------------|
|-12h14p12----------------------------------------------------------------|
|----------14-12h14p12----------------------------------------------------|
|----------------------14-12s10-------[12]b14==(12)---(12)r---------------|
|-------------------------------12p10-------------------------------------|


 ------------------|                    ~~~~~~         PM
   +S  S S S S S S S E        S     S  +E.             S
|----------------------------------------------------------|
|--------------------3--------------2--(2)-----------------|
|--------------------2--------------2--(2)-----------------|
|----------------------------------------------------------|
|----------------------------------------------------------|
|--(0)-0-2-2-3-3-4-5-----------------------------------0---|
|
|  +Q.           E   S    +S  S    +S   S    +S  S    +S
|-(15)-----------------------------------------------------|
|----------------------------------------------------------|
|--------------------2pb4r(2)-2pb4r(2)--2pb4r(2)-2pb4r(2)--|
|----------------------------------------------------------|
|----------------------------------------------------------|
|----------------------------------------------------------|


   PM---------------------------------------------------|          ~~~
  +S        S       S       S     S        S      S     S E  S  S +E. S
|-----------------------------------------------------------------------||
|---------------------------------------------------------8-----8-(8)---||
|---------------------------------------------------------7-----7-(7)-2-||
|---------------------------------------------------------6-----6-(6)-2-||
|---------------------------------------------------------7-----7-(7)-0-||
|-(0)-------0-------2-------2-----3--------3------4-----5---------------||
|
|                                                                  \7
|  |-------------6-------------|  |--------3---------|
|  S    +S    S    +S  S      +S  S    +S    E      +E    E +E    +E. S
|-----------------------------------------------------------------------||
|-----------------------------------------------------------------------||
|--2pb4r(2)---2pb4r(2)-2pb4r==(2)-2pb4r(2)---2pb4r==(2)---0-(0)---(0)---||
|-----------------------------------------------------------------------||
|-----------------------------------------------------------------------||
|-----------------------------------------------------------------------||


 3rd Verse
  +E  E S E. Q  E. S   +E  E S E. Q  E. S
|--------------------|--------------------|
|--------------------|--------------------|
|-(2)---2-2--------2-|-(2)--------------2-|
|-(2)---2-2--------2-|-(2)---2-2--------2-|
|-(0)---0-0--------0-|-(0)---2-2--------0-|
|-----3--------------|-----3-0-0----------|
|
|  W                    W
|--------------------|--------------------|
|--------------------|--------------------|
|--------------------|--------------------|
|--------------------|--------------------|
|--------------------|--------------------|
|--------------------|--------------------|


                                                              PM---------|
  +E  E S E. Q  E. S   +E  E S E. Q      E. S    +E  E S E.   E    E   E S S
|--------------------|------------------------|------------------------------|
|--------------------|------------------------|------------------------------|
|-(2)---2-2--------2-|-(2)------------------2-|--(2)---2-2-----------------2-|
|-(2)---2-2--------2-|-(2)---2-2------------2-|--(2)---2-2-----------------2-|
|-(0)---0-0--------0-|-(0)---2-2------------0-|--(0)---0-0----0----0---0-0-0-|
|-----3--------------|-----3-0-0--------------|------3-----------------------|
|
|                                        ~~~~~~~~~~~~~~~~~~~~~~~~
|  W                    H         S  E.  Q       +H          +E   +E   Q
|--------------------|------------------------|------------------------------|
|--------------------|--------------13--------|------------------------------|
|--------------------|------------------14----|-(14)--------(14)-(14)\-------|
|--------------------|------------------------|------------------------------|
|--------------------|------------------------|------------------------------|
|--------------------|------------------------|------------------------------|


             PM------------|                       PM|   PM
  +E  E S E. E  E     E    S  S    +E    E   S E.  E E E S S
|-------------------------------|----------------------------|
|-------------------------------|----------------------------|
|-(2)-------------------------2-|--(2)-------2-2-------2---2-|
|-(2)---2-2-------------------2-|--(2)-------2-2-------2---2-|
|-(0)---2-2--0----------------0-|--(0)-------0-0---0-0-0-0-0-|
|-----3-0-0--0--0-----0----0----|--------3-------------------|
|
|                                                  TP
|  H         E  S  S  S  E    S    +E   +E   Q     H
|--------------20p17-20-20---17-|-(17)-(17)\------17---------|
|--------------19p17-19-19---17-|-(17)-(17)\-----------------|
|-------------------------------|----------------------------|
|-------------------------------|----------------------------|
|-------------------------------|----------------------------|
|-------------------------------|----------------------------|


               PM--------------------------|
   +E  E  S E. E       E       E       S   S
|-----------------------------------------------||
|-----------------------------------------------||
|--(2)------------------------------------------||
|--(2)----2-2-----------------------------------||
|--(0)----2-2-----------------------------------||
|------3--0-0--0-------0-------0-------0---0----||
|
|   TP
|              |------6------| |------6------|
|  +Q     Q    S  S  S S  S  S S  S  S S S   S
|-(17)---17S===8h10h12--------------------------||
|----------------------8h10h12------------------||
|------------------------------9h11h12-9-----9--||
|--------------------------------------------9--||
|-----------------------------------------------||
|-----------------------------------------------||


 Chorus
   PM--------------|        ~~~PM------------------|        ~~~
  +S   S S S S S S S E S S +E. S   +S  S S S S S S S E S S +E. S
|--------------------------------|-------------------------------|
|--------------------3---2-(2)---|-------------------8---8-(8)---|
|--------------------2---2-(2)---|-------------------7---7-(7)---|
|--------------------------------|-------------------6---6-(6)---|
|--------------------------------|-------------------7---7-(7)---|
|-(0)--0-2-2-3-3-4-5-----------0-|-(0)-0-2-2-3-3-4-5-----------0-|
|
| +E   E Q   H                      W
|--------------------------------|-------------------------------|
|--------------------------------|-------------------------------|
|-(9)\---------------------------|-------------------------------|
|-(9)\---------------------------|-------------------------------|
|--------------------------------|-------------------------------|
|--------------------------------|-------------------------------|


   PM-------------|        ~~~PM------------------|        ~~~
  +S  S S S S S S S E S S +E. S   +S  S S S S S S S E S S +E  S S
|-------------------------------|---------------------------------||
|-------------------3---2-(2)---|-------------------8---8-(8)-----||
|-------------------2---2-(2)---|-------------------7---7-(7)-----||
|-------------------------------|-------------------6---6-(6)---5-||
|-------------------------------|-------------------7---7-(7)---5-||
|-(0)-0-2-2-3-3-4-5-----------0-|-(0)-0-2-2-3-3-4-5-------------3-||


 Bridge
                               PM----------|
  +Q   +E. S +Q   +E. S   +E   E E E E E E S S
|-----------------------|----------------------|
|-----------------------|----------------------|
|---------------------9-|-(9)\-----------------|
|-(5)--(5)-7-(7)--(7)-9-|-(9)\---------------5-|
|-(5)--(5)-7-(7)--(7)-7-|-(7)\---------------5-|
|-(3)--(3)-5-(5)--(5)---|------0-0-0-0-0-0-0-3-|


                               PM----------|
  +Q   +E. S +Q   +E. S   +E   E E E E E E S S
|-----------------------|-----------------------|
|-----------------------|-----------------------|
|---------------------9-|-(9)\------------------|
|-(5)--(5)-7-(7)--(7)-9-|-(9)\---------------5--|
|-(5)--(5)-7-(7)--(7)-7-|-(7)\---------------5--|
|-(3)--(3)-5-(5)--(5)---|------0-0-0-0-0-0-0-3--|


                               PM----------|
  +Q   +E. S +Q   +E. S   +E   E E E E E E S S
|-----------------------|----------------------|
|-----------------------|----------------------|
|---------------------9-|-(9)\-----------------|
|-(5)--(5)-7-(7)--(7)-9-|-(9)\---------------5-|
|-(5)--(5)-7-(7)--(7)-7-|-(7)\---------------5-|
|-(3)--(3)-5-(5)--(5)---|------0-0-0-0-0-0-0-3-|


  +Q   +E. S +H       W          +H.      E. S
|-------------------|----------|---------------||
|-------------------|----------|---------------||
|-------------------|----------|---------------||
|-(5)--(5)-7-(7)----|-9--------|-(9)------9\---||
|-(5)--(5)-7-(7)----|-9--------|-(9)------9\---||
|-(3)--(3)-5-(5)----|-7--------|-(7)------7\-0-||


   PM--------------------------------------------
  +S  S E E E E E E S S   +S  S E E E E E E S S
|-----------------------|-----------------------|
|-----------------------|-----------------------|
|-----------------------|-----------------------|
|-----------------------|-----------------------|
|-----------------------|-----------------------|
|-(0)-0-0-0-0-0-0-0-0-0-|-(0)-0-0-0-0-0-0-0-0-0-|
|
| Gtr II
|  \7
|  W                      +W
|-----------------------|-----------------------|
|-----------------------|-----------------------|
|-----------------------|-----------------------|
|-----------------------|-----------------------|
|--x--------------------|-(x)-------------------|
|-----------------------|-----------------------|


 ------------------------------------------------|
  +S  S E E E E E E S S   +S   S E E E E E E  S  S
|-----------------------|----------------------------|
|-----------------------|----------------------------|
|-----------------------|----------------------------|
|-----------------------|----------------------------|
|-----------------------|----------------------------|
|-(0)-0-0-0-0-0-0-0-0-0-|-(0)--0-0-0-0-0-0-0--0--0---|
|
| +W                      +H..                E
|-----------------------|----------------------------|
|-----------------------|----------------------------|
|-----------------------|--------------------<7>-----|
|-----------------------|----------------------------|
|-(x)-------------------|-(x)------------------------|
|-----------------------|----------------------------|


    PM---------------------------------------------------------------------------------------------------
   +S   S   E     E     E     E     E     E   S  S     +S   S   E     E     E     E     E     E   S  S
|---------------------------------------------------|---------------------------------------------------|
|---------------------------------------------------|---------------------------------------------------|
|---------------------------------------------------|---------------------------------------------------|
|---------------------------------------------------|---------------------------------------------------|
|---------------------------------------------------|---------------------------------------------------|
|--(0)--0---0-----0-----0-----0-----0-----0---0--0--|--(0)--0---0-----0-----0-----0-----0-----0---0--0--|
|
|   \2/     \2/   \2/   \2/   \2/   \2/   \2/                   \2/   \2/   \2/   \2/   \2/   \2/
|  +E      +E    +E    +E    +E    +E    +E   S  S     +E      +E    +E    +E    +E    +E    +E   S  S
|---------------------------------------------------|---------------------------------------------------|
|---------------------------------------------------|---------------------------------------------------|
|-(<7>)---(<7>)-(<7>)-(<7>)-(<7>)-(<7>)-(<7>)---<5>-|-(<5>)---(<5>)-(<5>)-(<5>)-(<5>)-(<5>)-(<5>)---<7>-|
|-----------------------------------------------<5>-|-(<5>)---(<5>)-(<5>)-(<5>)-(<5>)-(<5>)-(<5>)---<7>-|
|---------------------------------------------------|---------------------------------------------------|
|---------------------------------------------------|---------------------------------------------------|


 ------------------------------------------------------------------------------------|
   +S   S   E     E     E     E     E     E   S   S      +S   S    E      E      E      E   E   E.     S
|----------------------------------------------------|-----------------------------------------------------||
|----------------------------------------------------|-----------------------------------------------------||
|----------------------------------------------------|-----------------------------------------------------||
|----------------------------------------------------|-------------------------------------------------5---||
|----------------------------------------------------|-------------------------------------------------5---||
|--(0)--0---0-----0-----0-----0-----0-----0---0---0--|---(0)--0----0------0------0------0--------------3---||
|
|           \2/   \2/   \2/   \2/   \2/   \2/                      \2/    \2/    \2/
|  +E      +E    +E    +E    +E    +E    +E   S   S      +E       +E     +E     +E     +Q       E   S  S
|----------------------------------------------------|-----------------------------------------------------||
|----------------------------------------------------|----------------------------------------<12>-15p12---||
|-(<7>)---(<7>)-(<7>)-(<7>)-(<7>)-(<7>)-(<7>)---<12>-|-(<12>)---(<12>)-(<12>)-(<12>)-(<12>)---<12>---------||
|-(<7>)---(<7>)-(<7>)-(<7>)-(<7>)-(<7>)-(<7>)---<12>-|-(<12>)---(<12>)-(<12>)-(<12>)-(<12>)----------------||
|----------------------------------------------------|-----------------------------------------------------||
|----------------------------------------------------|-----------------------------------------------------||


 Guitar Solo
          +Q    +E.        S           +Q                 +E.             S
|------------------------------------------------------------------------------|
|------------------------------------------------------------------------------|
|-------------------------------------------------------------------------9----|
|---------(5)---(5)--------7-----------(7)----------------(7)-------------9----|
|---------(5)---(5)--------7-----------(7)----------------(7)-------------7----|
|---------(3)---(3)--------5-----------(5)----------------(5)------------------|
|
|                     |---3---|         |-------6-------|  |--------6--------|
|  a      +Q    +E    S  S    S  a     +S   S  S  S  S  S  S   S  S  S  S    S
|-12-----(12)--(12)--12-12---12-12----(12)-12-12-12-12-12-12--12-12-12-12---12-|
|-15b17==(15)--(15)r------------15b17-(15)-------------------------------------|
|------------------------------------------------------------------------------|
|------------------------------------------------------------------------------|
|------------------------------------------------------------------------------|
|------------------------------------------------------------------------------|


              PM---------------------------------------------------|
  +E          E        E        E        E        E        E        S    S
|------------------------------------------------------------------------------|
|------------------------------------------------------------------------------|
|-(9)\-------------------------------------------------------------------------|
|-(9)\-------------------------------------------------------------------5-----|
|-(7)\-------------------------------------------------------------------5-----|
|-------------0--------0--------0--------0--------0--------0--------0----3-----|
|
|  |-------6--------|  |------6-------|  |------6-------|  |-------6--------|
|  S    S  S  S  S  S  S  S  S  S  S  S  S  S  S  S  S  S  S  S  S  S  S    S
|------------12-14-15----------12-14-15----------12-14-15----------12-14---15--|
|-12---14-15----------12-14-15----------12-14-15----------12-14-15-------------|
|------------------------------------------------------------------------------|
|------------------------------------------------------------------------------|
|------------------------------------------------------------------------------|
|------------------------------------------------------------------------------|


  +Q                 +E.             S    +Q                 +E.   S
|--------------------------------------------------------------------|
|--------------------------------------------------------------------|
|------------------------------------------------------------------9-|
|-(5)----------------(5)-------------7----(7)----------------(7)---9-|
|-(5)----------------(5)-------------7----(7)----------------(7)---7-|
|-(3)----------------(3)-------------5----(5)----------------(5)-----|
|
|  |-------6-------|  |--------6--------|  |-------6-------|
|  S   S  S  S  S  S  S   S  S  S  S    S  S   S  S  S  S  S  E  S S
|-----------12-14-15-----------12-14---15-----------12-14-15--x\-0-x-|
|-12--14-15----------12--14-15------------12--14-15------------------|
|--------------------------------------------------------------------|
|--------------------------------------------------------------------|
|--------------------------------------------------------------------|
|--------------------------------------------------------------------|


         PM-----------------------|
  +E     E  E      E   E  E   E   S   S
|--------------------------------------------|
|--------------------------------------------|
|-(9)\---------------------------------------|
|-(9)\--------------------------------5------|
|-(7)\--------------------------------5------|
|--------0--0------0---0--0---0---0---3------|
|
| +S   S E  S   E.    +Q     +E   S   S
|-(x)/-0-x/-0/-15----(15)---(15)\---[15]b17==|
|--------------------------------------------|
|--------------------------------------------|
|--------------------------------------------|
|--------------------------------------------|
|--------------------------------------------|


    +Q         +E.     S +Q        +E.       S
|------------------------------------------------|
|------------------------------------------------|
|--------------------------------------------9---|
|---(5)--------(5)-----7-(7)-------(7)-------9---|
|---(5)--------(5)-----7-(7)-------(7)-------7---|
|---(3)--------(3)-----5-(5)-------(5)-----------|
|
|                                        |--3--|
|   +E.   S    +S  S S S  S  S S S  S  S S S   S
|-([15])r----------------------------------------|
|------------------------------------------------|
|---------2b4==(2)-2-2-2--2--2-2-2--2--2-2-2---2-|
|------------------------------------------------|
|------------------------------------------------|
|------------------------------------------------|


         PM------------------------------|
  +E     E   E     E       E      E  E   S S
|---------------------------------------------|
|---------------------------------------------|
|-(9)\----------------------------------------|
|-(9)\-------------------------------------5--|
|-(7)\-------------------------------------5--|
|--------0---0-----0-------0------0--0---0-3--|
|
|                                    \2/
|            |-3-|
|  S   S S S S S S T T T T T T E.   +Q
|---------------------------------------------|
|---------------------------------------------|
|--2---2-2r2-2p0---0--------------------------|
|----------------2---2p0h2p0h2p0----(0)-------|
|---------------------------------------------|
|---------------------------------------------|


  +Q            +E.         S   +H
|-----------------------------------------------------|
|-----------------------------------------------------|
|---------------------------2---(2)-------------------|
|-(5)-----------(5)---------2---(2)-------------------|
|-(5)-----------(5)---------0---(0)-------------------|
|-(3)-----------(3)-----------------------------------|
|
|  |----6-----|  |-----6------|  |----6-----| |-3-|
|  S  S S S S S  S  S S S S   S  S  S S S S S S S S E
|---------------------------------------------------6-|
|---------------------------------------5-5-5-8-8-8---|
|--------------------------------6--6-6---------------|
|----------------5--5-5-7-7---7-----------------------|
|--5--5-5-7-7-7---------------------------------------|
|-----------------------------------------------------|


  W
|-----------------------------------------------------------|
|-----------------------------------------------------------|
|-4---------------------------------------------------------|
|-4---------------------------------------------------------|
|-2---------------------------------------------------------|
|-----------------------------------------------------------|
|
|      T      T      T      T      T      T      T      T
| |-----6-----| |-----6-----| |-----6-----| |-----6-----|
| S S  S S S  S S S  S S S  S S S  S S S  S S S  S S S  S
|-----------------------------------------------------------|
|-0h7h12p0h9h12p0h7h12p0h9h12p0h7h12p0h5h12p0h7h12p0h5h12p==|
|-----------------------------------------------------------|
|-----------------------------------------------------------|
|-----------------------------------------------------------|
|-----------------------------------------------------------|


  +H.                                        +E.         S
|-------------------------------------------------------------|
|-------------------------------------------------------------|
|-(4)----------------------------------------(4)--------------|
|-(4)----------------------------------------(4)--------------|
|-(2)----------------------------------------(2)--------------|
|--------------------------------------------------------0----|
|
|       T      T      T      T      T      T       T        T
|  |-----6-----| |-----6-----| |-----6-----|  |------6------|
|  S S  S S S  S S S  S S S  S S S  S S S  S  S S  S S S    S
|-------------------------------------------------------------|
|--0h4h12p0h5h12p0h4h12p0h2h12p0h4h12p0h2h12p=0h4h12p0h4h==12-|
|-------------------------------------------------------------|
|-------------------------------------------------------------|
|-------------------------------------------------------------|
|-------------------------------------------------------------|


   PM-------------|         ~~~~PM
  +S  S S S S S S S E S S  +E.  S
|----------------------------------|
|-------------------3---2--(2)-----|
|-------------------2---2--(2)-----|
|----------------------------------|
|----------------------------------|
|-(0)-0-2-2-3-3-4-5-------------0--|
|
|                           \2
|  H.                      +Q
|----------------------------------|
|-<5>---------------------(<5>)----|
|----------------------------------|
|----------------------------------|
|----------------------------------|
|----------------------------------|


    PM--------------|        ~~~PM-
   +S   S S S S S S S E S S +E. S
|---------------------------------|
|---------------------8---8-(8)---|
|---------------------7---7-(7)---|
|---------------------6---6-(6)---|
|---------------------7---7-(7)---|
|--(0)--0-2-2-3-3-4-5-----------0-|
|
|   \7
|  +W
|---------------------------------|
|-(<5>)---------------------------|
|---------------------------------|
|---------------------------------|
|---------------------------------|
|---------------------------------|


 -----------------|        ~~~PM------------------|        ~~~PM
  +S  S S S S S S S E S S +E. S   +S  S S S S S S S E S S +E. S
|-------------------------------|--------------------------------|
|-------------------3---2-(2)---|-------------------8---8-(8)----|
|-------------------2---2-(2)---|-------------------7---7-(7)----|
|-------------------------------|-------------------6---6-(6)----|
|-------------------------------|-------------------7---7-(7)----|
|-(0)-0-2-2-3-3-4-5-----------0-|-(0)-0-2-2-3-3-4-5-----------0--|
|
|  W                               W
|-------------------------------|--------------------------------|
|-------------------------------|--------------------------------|
|-------------------------------|--------------------------------|
|-------------------------------|--------------------------------|
|-------------------------------|--------------------------------|
|-------------------------------|--------------------------------|


   PM------------|        ~~~PM------------------|         ~~~   PM
  +S S S S S S S S E S S +E. S   +S  S S S S S S S E  S S +E.    S
|------------------------------|-----------------------------------|
|------------------3---2-(2)---|-------------------8----8-(8)------|
|------------------2---2-(2)---|-------------------7----7-(7)------|
|------------------------------|-------------------6----6-(6)------|
|------------------------------|-------------------7----7-(7)------|
|-(0)0-2-2-3-3-4-5-----------0-|-(0)-0-2-2-3-3-4-5---------------0-|
|
|  W                              H                E  E    E   E
|-12s==========================|=19-----------------------10-------|
|------------------------------|---------------------12-------12---|
|------------------------------|-----------------------------------|
|------------------------------|-----------------------------------|
|------------------------------|-----------------------------------|
|------------------------------|-----------------------------------|


   PM------------------|            ~~~   PM-
   S S S    S S S    S S  E S    S +E.    S
|-------------------------------------------|
|-------------------------3------2-(2)------|
|-------------------------2------2-(2)------|
|-------------------------------------------|
|-------------------------------------------|
|--0-0-2----2-3-3----4-5------------------0-|
|
|  |-------3-------|      |------3------|
|  Q      Q        Q      Q    Q        Q
|-10--------------10----------10------------|
|--------12--------------12------------12---|
|-------------------------------------------|
|-------------------------------------------|
|-------------------------------------------|
|-------------------------------------------|


 -----------------------|            ~~~~
  +S  S S    S S S    S S  E  S  S  +E. S
|------------------------------------------||
|--------------------------8-----8--(8)----||
|--------------------------7-----7--(7)----||
|--------------------------6-----6--(6)-5--||
|--------------------------7-----7--(7)-5--||
|-(0)-0-2----2-3-3----4-5---------------3--||
|
|                                ~~~~~~~
|  |-------3--------|
|  Q       Q        Q      E.    S  +E. S
|-10---------------10-----------10-(10)----||
|---------12--------------12---------------||
|------------------------------------------||
|------------------------------------------||
|------------------------------------------||
|------------------------------------------||


   Pre Chorus
    Gtrs I, II
                             PM-------------|        ~~~
    +Q   +E. S +Q   +E. S   +S  S S S S S S S E S S +E. S  3x
||------------------------|--------------------------------||
||o-----------------------|-------------------3---2-(2)---o||
||-----------2-(2)--(2)---|-------------------2---2-(2)----||
||--(5)--(5)-2-(2)--(2)---|-----------------------------5--||
||o-(5)--(5)-0-(0)--(0)---|-----------------------------5-o||
||--(3)--(3)------------0-|-(0)-0-2-2-3-3-4-5-----------3--||


  +Q   +E. S +H       W           H     Q    Q
|-------------------|----------|-----------------||
|-------------------|----------|-----------/15\--||
|----------2-(2)----|-4--------|-(4)-------/14\--||
|-(5)--(5)-2-(2)----|-4--------|-(4)-------------||
|-(5)--(5)-0-(0)----|-2--------|-(2)-------------||
|-(3)--(3)----------|----------|-----------------||
                                 +W


   Outro Chorus
    Gtr I
     PM----------------|              ~~~~PM-
     S S  S S  S  S  S S  E    S  S  +E.  S
||------------------------------------------|
||o-----------------------3-------2--(2)----|
||------------------------2-------2--(2)----|
||------------------------------------------|
||o-----------------------------------------|
||---0-0--2-2--3--3--4-5------------------0-|
|
|   Gtr II
|    E    S S  S  E.      S S  S  S  +E.  S
||------------------------------------------|
||o-----------------------------------------|
||-------12-x-12---------12-x-12------------|
||--14---12-x-12-14------12-x-12-14-(14)-14-|
||o-14-----------14--------------14-(14)-14-|
||------------------------------------------|


 ---------------------|              ~~~~
  +S  S  S S  S  S  S S  E    S  S  +E.  S
|-------------------------------------------|
|------------------------8-------8--(8)-----|
|------------------------7-------7--(7)-----|
|------------------------6-------6--(6)-----|
|------------------------7-------7--(7)-----|
|-(0)-0--2-2--3--3--4-5------------------0--|
|
|  E     S S  S  E.      S S  S  S  +E.  S
|-------------------------------------------|
|-------------------------------------------|
|-------12-x-12---------12-x-12-14-(14)-14--|
|-14----12-x-12-14------12-x-12-14-(14)-14--|
|-14------------14--------------------------|
|-------------------------------------------|


   PM-----------------|              ~~~~PM-
  +S  S  S S  S  S  S S  E    S  S  +E.  S
|------------------------------------------|
|------------------------3-------2--(2)----|
|------------------------2-------2--(2)----|
|------------------------------------------|
|------------------------------------------|
|-(0)-0--2-2--3--3--4-5------------------0-|
|
|  E     S S  S  E.      S S  S  S  +E.  S
|------------------------------------------|
|------------------------------------------|
|-------12-x-12---------12-x-12------------|
|-14----12-x-12-14------12-x-12-14-(14)-14-|
|-14------------14--------------14-(14)-14-|
|------------------------------------------|


 ---------------------|              ~~~~
  +S  S  S S  S  S  S S  E    S  S  +E.  S  5x
|-------------------------------------------||
|------------------------8-------8--(8)----o||
|------------------------7-------7--(7)-----||
|------------------------6-------6--(6)-----||
|------------------------7-------7--(7)----o||
|-(0)-0--2-2--3--3--4-5------------------0--||
|
|  E     S S  S  E.      S S  S  S  +E.  S  5x
|-------------------------------------------||
|------------------------------------------o||
|-------12-x-12---------12-x-12-14-(14)-14--||
|-14----12-x-12-14------12-x-12-14-(14)-14--||
|-14------------14-------------------------o||
|-------------------------------------------||

SLICE OF YOUR PIE transcribed by witty00

drop d on all guitars

h- hammer on
p- pull off
/- slide down
\- slide up
^- arm up
\/- arm down
^(#)- tremolo
(#)- ghost note
~- let ring
b- bend
ph- pinch harmonic
\/^\/- random trilling

intro- acoustic
d--0----------------------------|
g--0----8----10---13----5--7--9-|
c--1----7----9----12----5--7--9-|
f--2----6----8----11----5--7--9-|
a--2----7----9----12----3--5--7-|
d--0----------------------------|

gtr 2, acoustic with slide
d-------------------12-------------------------------------|
g---------------12~-------12----10-------12-12-10----------|
c--11/12---------------------------10/11----------10/11----|
f--------12\10----------12---12-------------------------12-|
a----------------------------------------------------------|
d----------------------------------------------------------|

d-----------------------------|
g--9----10---13----5-----7----|
c--7----9----12----5--5--7--7-|
f--6----8----11----5--5--7--7-|
a--7----9----12----3--3--5--5-|
d-----------------------------|

gtr 2, acoustic with slide
d-----------------12--12/15-12------------------------------------|
g--------------12~-------------15-12-12-10--------12-12--10-------|
c--11/12-----------------------------------10/11------------10/11-|
f--------12\10----------------------------------------------------|
a-----------------------------------------------------------------|
d-----------------------------------------------------------------|

verse
d---------------------------------------------------|
g---------------------------------------------------|
c---------------------------------------------------|
f-------------------------------------------------2-|
a-------------------------------------------------0-|
d--0--0-3--3-5-5-5-5-3-5-3--3--0-0-3-3-5--5-5-5-3---|

d-----------------------------------------------------|
g-----------------------------------------------------|
c-----------------------------------------------------|
f-----------------------------------------------------|
a-------------------------------------------------0-1-|
d--0--0-3--3-5-5-5-5-3-5-3--3--0-0-3-3-5--5-5-5-3-----|

chorus
d--------------------------|
g--3~~--(3)--------------5-|
c--2~~--(2)--------------4-|
f--1~~--(1)---------2----2-|
a--2~~--(2)----2-1--0------|
d------------2-------------|

verse
d---------------------------------------------------|
g---------------------------------------------------|
c---------------------------------------------------|
f-------------------------------------------------2-|
a-------------------------------------------------0-|
d--0--0-3--3-5-5-5-5-3-5-3--3--0-0-3-3-5--5-5-5-3---|

gtr 2, with slide
d-------------------------------------12\---------------------------12---12-12-15~-|
g---------------------------------/12-----8-------------------12-12---12-----------|
c--------------------------------------------7~------------------------------------|
f----------------------------------------------------------------------------------|
a----------------------------------------------------------------------------------|
d----------------------------------------------------------------------------------|

d----------------------------------------------------------------------|
g----------------------------------------------------------------------|
c--------2-------2-----------------------------------------------------|
f--2-2---0-2-2---0-----------------------------------------------------|
a--0-0-3---0-0-3---------------------------------------------------0-1-|
d-------------------0--0-3--3-5-5-5-5-3-5-3--3--0-0-3-3-5--5-5-5-3-----|

gtr 2, with slide
d--15-/-17-/-----12--------------------------------|
g-------------10---10-12---------------------------|
c------------------------12------------------------|
f----------------------------12--/--14--(14)--/-17-|
a--------------------------------------------------|
d--------------------------------------------------|

choruw
d-----------------------------------------------------------------|
g--3-\/---(3)-----------------------------------------------------|
c--2-\/---(2)-----------------------------------------------------|
f--1-\/---(1)---------2-------------------------------------------|
a--2-\/---(2)----2-1--0-------------0-0-1---------------------0-1-|
d--------------2-----------0--0-3-3--------0--0-3-3-5-5-5-5-3-----|

gtr 2, with slide
d--------------------12---12---12---12---12---12-----------|
g----------------/12---12---12---12---12---12--------------|
c--7~----7-/-9------------------------------------/12-9-9/-|
f----------------------------------------------------------|
a----------------------------------------------------------|
d----------------------------------------------------------|

d------12---12---12---12---12---12-/15--(15)\-|
g--/12---12---12---12---12---12---------------|
c---------------------------------------------|
f---------------------------------------------|
a---------------------------------------------|
d---------------------------------------------|

chorus
d-----------------------------|
g--3----3-\/-----2----(2)-----|
c--2----2-\/-----2----(2)-----|
f--1----1-\/-----2----(2)-----|
a--2----2-\/--1--0----(0)-----|
d--------------------------3--|

gtr 2, with slide
d------------------|
g--\7-----------/9-|
c--\7-----------/9-|
f------------------|
a------------------|
d------------------|

bridge- arpeggio
d----------------------------------------------------------------------|
g----------7---------------8----------------10-------------------------|
c------9-----9--9------7-----7---7------9------9---9-------12-----5--7-|
f----9--9-----9------6--6------6------8--8-------8-------11-------5--7-|
a------------------7----------------9-----------------12------12--3--5-|
d--0-------------------------------------------------------------------|

solo
                  ph                ph
d--------------------------------------|
g--------------------------------------|
c--------------------------------------|
f--2-2--0-0-1-0--0---2-2--0-0-1-0--0---|
a--0-0----------3-3--0-0----------3-3--|
d--------------------------------------|

gtr 2
d-22-22-22-22-22-17--17------17--------17---17-20-17-20-17-17---17--17--17---------|
g------------------20--20-20---20-17-20--20-------------------20--20--20--20-19-17-|
c----------------------------------------------------------------------------------|
f----------------------------------------------------------------------------------|
a----------------------------------------------------------------------------------|
d----------------------------------------------------------------------------------|

d--------------------------|
g--18-19-18-19p18-19p18-19-|
c--------------------------|
f--------------------------|
a--------------------------|
d--------------------------|

gtr 1                                      ph
d---------------------------------------------|
g---------------------------------------------|
c---------------------------------------------|
f----------------------------2-2--0-0-1-0--0--|
a--2-2--0-0-1-0--0-----------0-0----------3-3-|
d--0-0----------3-3---------------------------|

gtr 2
      right hand tapping
d---------------------------15-12-15-12------------------------5-----5-----|
g--19^(12)-\/^\/-^(19)--15--------------15p12\10-12-\/-^12--8-8-8-5-8--8-7-|
c--------------------------------------------------------------------------|
f--------------------------------------------------------------------------|
a--------------------------------------------------------------------------|
d--------------------------------------------------------------------------|

d---------------5------5---------------------------|
g--5--5---5-7-8--8-5-8--8-7-5--7-5----------5--5-8-|
c----7--7---------------------8---8-7-5-6-7--7-----|
f--------------------------------------------------|
a--------------------------------------------------|
d--------------------------------------------------|

gtr 1
d----------------------------------------|
g----------------------------------------|
c----------------------------------------|
f----------------------------------------|
a--2-2--0-0-1-0--0-----2-2--0-0-1-0--0-1-|
d--0-0----------3-3----0-0----------3----|

gtr 2
d--15-\/--12-^-12--17-18-19-19---19---19--19--19-----19----19----21----|
g------------------------------22---22--22--22-------------------------|
c-------------------------------------------------21----21----21----21-|
f----------------------------------------------------------------------|
a----------------------------------------------------------------------|
d----------------------------------------------------------------------|

chorus
d----------------------------------------|
g--3------3------------------------------|
c--2------2------------------------------|
f--1------1----------2-------------------|
a--2------2-----2-1--0-------------0-0-1-|
d-------------2-----------0--0-3-3-------|

gtr 2
d--22-22\/^-22~--(22)------------12--12--12--12--12-------------|
g--------------------------2--/12--12--12--12--12--12-----------|
c----------------------\7--2---------------------------/12-9-9~-|
f----------------------\7--2------------------------------------|
a---------------------------------------------------------------|
d---------------------------------------------------------------|

d-----12--12--12--12--12--12--12-14-15-16-17-18--19~-----|
g--/12--12--12--12--12--12----------------------------\7-|
c-----------------------------------------------------\7-|
f-----------------------------------------------------\7-|
a--------------------------------------------------------|
d--------------------------------------------------------|

gtr 1
d---------------------------------------------------|
g-------------------------------------------------3-|
c-------------------------------------------------2-|
f-------------------------------------------------1-|
a-------------------------------------------------2-|
d---------------------------------------------------|

gtr 1
d-----------------|
g--3-\/-----------|
c--2-\/---------2-|
f--1-\/---------2-|
a--2-\/----2-1--0-|
d--------2--------|

gtr 2
d------------------|
g--/7-----------2--|
c--/7-----------2--|
f--/7-----------2--|
a------------------|
d------------------|

gtr 1, arpeggio
d-----------------------------------------------------------|
g--------7------------8------------10-------------13--------|
c------9---9--------7---7--------9----9---------12---12-----|
f----9-------9----6-------6-----8-------8-----11--------11--|
a--7------------7-------------9------------12---------------|
d-----------------------------------------------------------|

gtr 2
d----------------------------------------------------------------|
g----------------------------------------------------------------|
c----------------------------------------------------------------|
f------------------------------------------7--7---------7--7-----|
a-----------------------------------------------5-4--2-------5-4-|
d-----------------------------------------------3-2--0-------3-2-|

gtr 2
d-------------------------------|
g-------------------------------|
c-------------------------------|
f----4--5--7/9-----7--7---------|
a--2------------9-------5-4--2--|
d--0--------------------3-2--0--|

gtr 1, arpeggio                                  ph   ph
d-------------------------------------------------------|
g--------7------------8------------10-------------------|
c------9---9--------7---7--------9----9----9-7---9-7----|
f----9-------9----6-------6----8--------8------9------9-|
a--7------------7------------9--------------------------|
d-------------------------------------------------------|

gtr 2
d--------------------------------------------------|
g--------------------------------------------------|
c--------------------------------------------------|
f-----------------------------------------7--7-----|
a----------------------------------------------5-4-|
d----------------------------------------------3-2-|

gtr 1, arpeggio
d---------------------------------------------------------|
g--------7------------8------------10--------------13-----|
c------9---9--------7---7--------9----9---------12---12---|
f----9-------9----6-------6----8--------8----11--------11-|
a--7------------7------------9-------------12-------------|
d---------------------------------------------------------|

gtr 2
d----------------------------------------------------------------------------------|
g----------------------------------------------------------------------------------|
c----------------------------------------------------------------------------------|
f------------------------------------------------------------4--5--7/9----7--7-----|
a----------------------------------------------------------2-----------9-------5-4-|
d----------------------------------------------------------0-------------------3-2-|

d-----------------|
g-----15b----(15)-|
c-----14b----(14)-|
f-----------------|
a--2--------------|
d--0--------------|

d--------------------------------------------|
g-----------------8--8---7b-8b--7b-----------|
c-----------------9b-9b----------------------|
f--7--7-----------------------------7--7-----|
a-------5-4----2-------------------------5-4-|
d-------3-2----0-------------------------3-2-|

RATTLESNAKE SHAKE 

Can't find any half-decent tabs. Might tab myself latter.

KICKSTART MY HEART transcribed by unregistered, stevep@snowhite.cis.uoguelph.ca, 519 824-4120

tune one whole step down

                        w/ bar
Intro:                  /\/\/\/\/\/\/\/\/\/\/\/\ 
|-------------------------------------------------------------
|-------------------------------------------------------------
|-------------------------------------------------------------
|-0-----------------------------------------------------------
|--------0----------------------------------------------------
|----------------0--------------------------------------------
  |  /   |   /   |   /   
  |/     |/      |/
Ride the bar on these alot
Riff A                                       end riff A
|----------------------------------------------|  repeat 4x
|----------------------------------------------|
|.--------------------------------------------.|
|.--------------------------------------------.|
|--5---6/-7--7--7--7--7--7--7--7--7--7--7--7---|
|--3---4/-5--5--5--5--5--5--5--5--5--5--5--5---|
           pm------------>----------->------]

         Riff B
|-------------------------------------------------------------
|----------------------------------------------------8----7---
|----------------------------------------------------7----7---
|----------2-----------------------------------7-----7----7---
|--5---6---0--3>-0--3--0-----5--3>-0--3--0--4--5--5-----------
|--3---4------------------3--3--------------------------------

|-------------------------------------------------------------
|-----------------8>-7--7\------------------------------------
|-----------------7-----7\------------------------------------
|-----------------7-----7\-----2------------------------------
|--5--5--5--5--5---------------0---3>-0--3>-0-----5--3>-0-----
|---------------------------3------------------3--3-----------
  pm------------]

|-------------------------------------------------------------
|-----------------8---7---------------------------------------
|-----------------7---7---------------------------------------
|-----------7-----7---7--------7----------------------2-------
|--3>-0--4--5--5---------5--5--5----------------0--3--0-------
|-----------------------------------0--1--2--3----------------
                        pm---]

                               v-End riff B
|-------------------------------------------------------------
|-------------------------------------------------------------
|-------------------------------------------------------------
|-----------------------------------7-------------------------
|--3>-0--3>-0-----5--3>-0--3>-0--4--5-------------------------
|--------------3--3-------------------------------------------
                                    hold---------------------]


Verse:
When I get high I get high on speed
Riff A

Top fuel funny car's a drug for me
Riff A 

Riff C
   My heart     my heart  kickstart my heart
|-------------------------------------------------------------
|--------------------------------------------8----7-----------
|--------------------------------------------7----7-----------
|------------5----------------------7--------7----7-----------
|---5----6---3------5---------------5----5-----------5--5--5--
|---3----4----------3-----------------------------------------
                                                    pm--------
                End riff C
|----------------|
|--------8---7---|
|--------7---7---|
|--------7---7---|
|--5--5----------|
|----------------|
 ------]

Always got the cops comin' after me
Riff A

Custom built bike doin' 1 - 0 - 3
Riff A

My heart, my heart, kickstart my heart
Riff C

               Oooh,  are ya ready girls       oooh, are ya ready now
|---------------5--------------------------------5------------
|---------------8--------------------------------8------------
|---------------5--------------------------------5------------
|---------------5--------------------------------5------------
|--4--5--6/-7---7-----------------------5--6/-7--7------------
|--2--3--4/-5---5-----------------------3--4/-5--5------------

Chorus (w/ Riff B)
Whoa, yeah, kickstart my heart give it a start
Whoa, yeah, ba  -  by
Whoa, yeah, kickstart my heart hope it never stops
Whoa, yeah, 

  baby                       Yeah
|-------------------------------------------------------------
|-------------------------------------------------------------
|-------------------------------------------------------------
|-------------------------------------------------------------
|---3---3--3--3--3--3--3--3--3--3--3--3--3--3--3--3--3--3--3--
|-------1--1--1--1--1--1--1--1--1--1--1--1--1--1--1--1--1--1--
       pm---------------------------------------------------]

|-------------------------------------------------------------
|-------------------------------------------------------------
|-------------------------------------------------------------
|---------------------2---------------------------------------
|---------------0--3--0--7--7--7--7--7--7--7--7--7--7---------
|---0--1--2--3-----------5--5--5--5--5--5--5--5--5--5---------
                       pm----------------------------]

Riff A (3x)

Then 2nd verse (sim. to first)
Sky dive naked from an aeroplane
Or a lady with a body from outer space
My heart, my heart, kickstart my heart
Say I've got trouble in my eyes
I'm just lookin for another good time
My heart, my heart, kickstart my heart


Chorus (same)

Interlude

|-------------------------------------------------------------
|-------------------------------------------------------------
|-------------------------------------------------------------
|--9----------------------------------------------------------
|--7----------------------------------------------------------
|--0----------------------------------------------------------
   hold --------------------------------------------------

(clean)
|-----------------------------------------------2>-2--2-------
|---2--------3-------3-------------2-------3----3-----3-------
|---2--------0-------2-------------2-------0----2-----2-------
|---2--------5-------0-------------2-------5----0-------------
|---0------------------------------0--------------------------
|-------------------------------------------------------------

  When we started this band      Years gone by,
  all we needed, needed was      I'd say we've kicked some ass
  a laugh
|-----------------------------------------------2>-2--2-------
|---2--------3-------3-------------2-------3----3-----3-------
|---2--------0-------2-------------2-------0----2-----2-------
|---2--------5-------0-------------2-------5----0-------------
|---0------------------------------0--------------------------
|-------------------------------------------------------------

(w/ dist)           When I'm enraged or  hittin the stage
|-------------------------------------------------------------
|------------------------------------------3------------------
|--------------------2---------------------0------------------
|--------------------2---------------------0------------------
|--------------0--3--0---------------------X------------------
|--0--1--2--3------------------------------3------------------
                     >                     >

  Adrenilin rushin thru my veins and I'd say we're still 
|-------------------------------------------------------------
|-----3-----------------------------------------------3-------
|-----2-----------------------------------2-----------0-------
|-----0-----------------------------------2-----------0-------
|-----------------------------------------0-----------X-------
|-----------------------------------------------------3-------
      >                                   >           >
                              (half-time feel)
  kickin ass                   say ooh     ah     kickstart
|-------------------------------------------------------------
|---------3---------------------------------3-------------3---
|---------2----------------------2----------0-------------2---
|---------0----------------------2----------0-------------0---
|--------------------------------0----------X-----------------
|-------------------------------------------3-----------------
          hold------------

   my heart, hope it never stops,  and to think we did all of 
|-------------------------------------------------------------
|--------------------------X\---------------------------3-----
|--------------------------X\--------------2------------0-----
|------------------------------------------2------------0-----
|------------------------------------------0------------X-----
|-------------------------------------------------------3-----

   this to rock
|------------------------------------
|-----------3------------------------
|-----------2------------------------
|-----------0------------X/--X\--X/--
|------------------------X/--X\--X/--
|------------------------------------

Chorus, etc.

Someday when I have more time I'll type in the lead parts and the outro
solo. For those who like improvising, it's trem picked A5 w/ A pentatonic
lead; B5 w/ B pent.; C5 w/ C pent.; D5 w/ D pent.; at 5th pos, 7th pos,
17th pos, and 17th pos for the leads, respectively.

WITHOUT YOU transcribed by unregistered, bighabit69@iamwasted.com

Gtr I
|--------------||-------------------------|
|--------------||-------------------------|
|--------4S====||=12s===14S16-------------|
|--------------||---------------------/12-|
|--------------||-------------------------|
|--------------||-------------------------|
|
| Gtr II
|--------------||-----3-------------7-----|
|--------------||-----3-------------------|
|--------------||-----0-----------9-------|
|--------------||---------------9---------|
|--------------||-------------7-----------|
|----------15\-||--3----------------------|


|--------------------------------------|------------------||
|--------------------------------------|-13s12------------||
|-12--(12)-14s12s14\-------------------|-------12-9S12----||
|---------------------14-----(14)------|------------------||
|--------------------------------------|------------------||
|--------------------------------------|------------------||
|
|-------3----------------------7-------|------------------||
|-------3-------------------------8----|------------------||
|-------0------------------9--------9--|--2-------4--5----||
|------------------------9-------------|--2-------4--5----||
|----------------------7---------------|--0-------2--3----||
|--3-----------------------------------|------------------||


 1st Verse
                                                Gtr III
|-----------------------------|-------------------------------|
|-----------------------------|-------------------------------|
|-(12)------------------------|-(12)-----------------12-------|
|-----------------------------|----------------------14-------|
|-----------------------------|-------------------------------|
|-----------------------------|-------------------------------|
|
|      Gtr III
|-----------------------------|-------------------------------|
|-----------------------------|--12-----(12)-13p=12--13h15p13-|
|-----------------12-12-------|--12-----(12)-12-(12)-12-------|
|-----------------12-14p12----|--12-----(12)-14p=12--14-------|
|----------10-/14----------14-|-------------------------------|
|-----------------------------|-------------------------------|


  Gtr III
|-------------------------|--------------12s10----10-8-8s10-|
|-------------------------|--------------12s10----10-8-8s10-|
|-5---7-/9-12-12s14s12s14-|-12-----------------12-----------|
|-5---7-/9-12-12s14s12s14-|-12------------------------------|
|-------------------------|-10--(10)-10---------------------|
|-5---7-/8----------------|---------------------------------|


|------------------------------|
|-12----(12)-13p=12--13p=12----|
|-12----(12)-12-(12)-12-(12)---|
|-12----(12)-14p=12--14p=12----|
|------------------------------|
|------------------------------|


|---------------------------------|-----7--8----|
|------------13-12----13-15-13----|-5---7--8----|
|-12----(12)-12-12----12-12-12----|-5---7--9----|
|-12----(12)-------14----------14-|-5---7-10----|
|---------------------------------|-------10----|
|---------------------------------|-5---7--8----|


|---------------------------------------||
|---------------------------------------||
|-----------------12-14-12--------------||
|-----------------12-14-12-12-12-10h12--||
|-10--(10)-10-/14----------12-12-10h12--||
|---------------------------------------||


  Gtr I
|-------------------|----------------14-----15--14-------|---------------------|
|-------------------|-------------15----15---------15----|---------------------|
|-------------------|--------7S14---------------------14-|-17--------16--------|
|-------------------|------------------------------------|---------------------|
|-------------------|------------------------------------|---------------------|
|-8--(8)-8-7--(7)-7-|-6--(6)-6S10----------(10)-------10-|--8--(8)-8--7--(7)-7-|


                 2nd Verse
                  Gtr I
|--------------||----------------------------------|
|-3--5--6s=10--||-12-------------------------------|
|-3--5--7s=10--||-12-------------------------------|
|--------------||------------------2-------4h5-----|
|-5--7--8s=12--||-14-------0h2---------------------|
|-6------------||--3-------------------------------|
|
|                 Gtr III
|--------------||----------0---3-----------0---3---|
|--------------||------3-----3---3-----3-----3---3-|
|--------------||----4---4-----------4---4---------|
|--------------||--5-------------------------------|
|--------------||----------------------------------|
|--------------||----------------------------------|


|-----------------3-------5-7-------|
|-----------------5-------7-8-------|
|-4-------5h7-----------------------|
|-----------------2-------4-5-------|
|---------0h2-----------------------|
|-3---------------------------------|
|
|---------0---3-----------0---3-----|
|-----3-----3---3-----3-----3---3---|
|---4---4-----------4---4-----------|
|-5---------------------------------|
|-----------------------------------|
|-----------------------------------|


|------------|---------3--------------7-----|
|------------|---------3--------------------|
|-5----------|---------0------------9-------|
|-2---4-5----|--------------------9---------|
|-0---2-3----|------------------7-----------|
|------------|-3----------------------------|
|
|------------|---------0---3--------0-7-----|
|------------|-----3-----3---3----0-------8-|
|------------|---4---4----------4-------9---|
|------------|-5----------------------------|
|------------|------------------------------|
|------------|------------------------------|


|------------|---------3---------------7------|---------------------||
|------------|---------3---------------8---8\-|---------------------||
|-5----------|---------0-------------9-----9\-|-5--(5)----------5---||
|-2---4-5----|-----------------2---9----------|-2--(2)-4-5-(5)------||
|-0---2-3----|-------------------7------------|-0--(0)-2-3-(3)------||
|------------|-3------------------------------|---------------------||
|
|------------|---------0---3---------0-7------|---------------------||
|------------|-----3-----3---3-----0-------8--|---------------------||
|------------|---4---4-----------4-------9----|---------------------||
|------------|-5------------------------------|---------------------||
|------------|--------------------------------|---------------------||
|------------|--------------------------------|---------------------||


|---------------------------|
|---------------------------|
|-12s===14-/16--------------|
|-----------------------/12-|
|---------------------------|
|---------------------------|
|
|-----3--------------7\-----|
|-----3--------------8\-----|
|-----0------------9--------|
|----------------9----------|
|--------------7------------|
|--3------------------------|


|---------------------------------|-------------------||
|---------------------------------|-13s12-------------||
|-12--(12)s14s12------------------|-------12-9-/12----||
|----------------/14--------------|-------------------||
|---------------------------------|-------------------||
|---------------------------------|-------------------||
|
|-------3------------------7------|-------------------||
|-------3--------------------8----|-------------------||
|-------0----------------9-----9\-|--2-------4---5----||
|----------------------9----------|--2-------4---5----||
|--------------------7------------|--0-------2---3----||
|--3------------------------------|-------------------||


 3rd Verse
       Gtr III
|------------0---3----------0---3---|
|--------3-----3---3----3-----3---3-|
|-(12)-4---4----------4---4---------|
|---5-------------------------------|
|-----------------------------------|
|-----------------------------------|


|---------0---3----------0---3---|---0-0---------0---------|
|-----3-----3---3----3-----3---3-|-------0-----3---3---3---|
|---4---4----------4---4---------|-2-----------------0-----|
|-5------------------------------|-------------------------|
|--------------------------------|-------------------------|
|--------------------------------|-5-------7-8-------------|


|---------0---3-----------------------------||
|-----3-----3----3--------------------------||
|---4---4-------------12-14-12----12--------||
|-5-------------------12-14-12-14-12-12-----||
|---------------10S12----------14----12-----||
|---------------------------------------15\-||
|
|                                       Gtr II
|-------------------------------------------||
|-------------------------------------------||
|-------------------------------------------||
|-------------------------------------------||
|-------------------------------------------||
|-------------------------------------------||


|-------------------|----------------14-----15--14--------|
|-------------------|-------------15----15---------15-----|
|-------------------|--------7s14---------------------14--|
|-------------------|-------------------------------------|
|-------------------|-------------------------------------|
|-------------------|-------------------------------------|
|
|-------------------|-------------------------------------|
|-------------------|-------------------------------------|
|-------------------|-------------------------------------|
|-------------------|-------------------------------------|
|-------------------|-------------------------------------|
|-8--(8)-8-7--(7)-7-|-6--(6)-6s10----------(10)-------10--|


|---------------------|--------------|
|---------------------|-3--5--8s=10--|
|-17--------16--------|-3--5--7S=10--|
|---------------------|--------------|
|---------------------|-5--7--8S=12--|
|---------------------|--------------|
|
|---------------------|--------------|
|---------------------|--------------|
|---------------------|--------------|
|---------------------|--------------|
|---------------------|--------------|
|--8--(8)-8--7--(7)-7-|-6------------|


 4th Verse
|----------------------------------|-----------------3-------5-----7-||
|-12-------------------------------|-----------------5-------7-----8-||
|-12-------------------------------|-4-------5h====7-----------------||
|----------------------------------|---------------------------------||
|-14-------------------------------|---------------------------------||
|----------------------------------|---------------------------------||
|
|----------------------------------|---------------------------------||
|----------------------------------|---------------------------------||
|--------------------------4-----5-|---------------------------------||
|------------------2---------------|-----------------2-------4-----5-||
|----------0-----2-----------------|---------0h====2-----------------||
|--3-------------------------------|-3-------------------------------||
|
| Gtr III
|----------0---3-----------0---3---|---------0---3-----------0---3---||
|------3-----3---3-----3-----3---3-|-----3-----3---3-----3-----3---3-||
|----4---4-----------4---4---------|---4---4-----------4---4---------||
|--5-------------------------------|-5-------------------------------||
|----------------------------------|---------------------------------||
|----------------------------------|---------------------------------||


  Gtr I
|------------|----3-------------7\--|
|------------|----3-------------8\--|
|-5----------|----0-----------9-----|
|-2---4-5----|----------2---9-------|
|-0---2-3----|------0h2---7---------|
|------------|-3--------------------|


|------------|----3------------------|-------------------||
|------------|----3------------------|-------------------||
|-5----------|----0------------------|-5--(5)------------||
|-2---4-5----|----------2-------4--5-|-2--(2)-4-5-(5)----||
|-0---2-3----|------0-2--------------|-0--(0)-2-3-(3)----||
|------------|-3---------------------|-------------------||
|
| Gtr II
|------------|------------------7\---|-------------------||
|------------|------------------8\---|-------------------||
|------------|----------------9------|-------------------||
|------------|--------------9--------|-------------------||
|------------|------------7----------|-------------------||
|------------|-----------------------|-------------------||


 Bridge
  Gtr III
|----10----10-------10---------------5--------|
|-------------10----------------5------5----5-|
|-------11-------11----11----6----6-------6---|
|---------------------------------------------|
|---------------------------------------------|
|---------------------------------------------|
|
| Gtr III
|-14----14----14----14----12---12---12---12---|
|-15----15----15----15----14---14---14---14---|
|---------------------------------------------|
|---------------------------------------------|
|---------------------------------------------|
|---------------------------------------------|


|------------3-------------------3--------|----10----10-------10---------------5--------|
|-------5------5----5-------3------3----3-|-------------10----------------5------5----5-|
|----5----5-------5------4----4-------4---|-------11-------11----11----6----6-------6---|
|-----------------------------------------|---------------------------------------------|
|-----------------------------------------|---------------------------------------------|
|-----------------------------------------|---------------------------------------------|
|
|-12---12---12---12---10---10---10---10---|-14----14----14----14----12---12---12---12---|
|-13---13---13---13---12---12---12---12---|-15----15----15----15----14---14---14---14---|
|-----------------------------------------|---------------------------------------------|
|-----------------------------------------|---------------------------------------------|
|-----------------------------------------|---------------------------------------------|
|-----------------------------------------|---------------------------------------------|


                                             Gtr I
|------------3--------------------3--------|-------------|---------------|
|-------5------5----0-------3-------3----3-|-------------|------8--------|
|----5----5-------5------4-----4-------4---|-------------|-5----7--------|
|------------------------------------------|-7-----------|-5----5--------|
|------------------------------------------|-5----7------|-3-------------|
|------------------------------------------|------5---x\-|---------------|
|
|-12---12---12---12---10---10----10---10---|-------------|---------------|
|-13---13---13---13---12---12----12---12---|-------------|---------------|
|------------------------------------------|-------------|---------------|
|------------------------------------------|-------------|---------------|
|------------------------------------------|-------------|---------------|
|------------------------------------------|-------------|---------------|
|
|                   Gtr I                                  Gtr II
|                                                                      ~
|------------------------------------------|-------------|---------------|
|------------------------------------------|-------------|---------------|
|------------------------------------------|-------------|---------------|
|------------------------------------------|-------------|---------------|
|-----------------------------------2--3---|-------------|------5----2-3-|
|---------------------------x\----3--------|-------------|------3--3-----|


|-------------|------------||
|-------------|------8-----||
|-------------|-5----7-----||
|-7-----------|-5----5-----||
|-5----7------|-3----5-----||
|------5---x\-|------3-----||
|
|                 Gtr II
|-------------|------------||
|-------------|------------||
|-------------|------4/----||
|-------------|------------||
|-------------|------------||
|-------------|------------||


 Slide solo
|---------------------------|---------------------------------|
|---------------------------|---------------------------------|
|-12--------11s12-----------|------------------------------2/-|
|-----------------12-(12)---|-14s12s14s=12s14---14s16-(16)----|
|---------------------------|---------------------------------|
|---------------------------|---------------------------------|
|
|  ~~        ~~~               ~~~
|---------------------------|---------------------------------|
|---------------------------|---------------------------------|
|---------------------------|---------------------------------|
|---------------------------|--------------------7------------|
|--3--(3)-5S=2--------(2)-5S|==1----(1)-------1S=5------------|
|---------------------------|---------------------------------|


|---------------------------|----------------------------------|
|---------------------------|----------------------------------|
|-12--------11s12-----------|----------------------------------|
|-----------------12-(12)---|-14s12-14s=12---12S14S12S14S12----|
|---------------------------|----------------------------------|
|---------------------------|----------------------------------|
|
|  ~~        ~~~               ~~~
|---------------------------|----------------------------------|
|---------------------------|----------------------------------|
|---------------------------|----------------------------------|
|---------------------------|-----------------7----------------|
|--3--(3)-5S=2--------(2)-5S|==1----(1)----1S=5----------------|
|---------------------------|----------------------------------|


|----------------------------/17s15-(15)---|-17s15-12S17--15-12---10--(10)S15-|
|-------12-13S15----13-12------------------|----------------------------------|
|---/12-------------------12---------------|----------------------------------|
|------------------------------------------|----------------------------------|
|------------------------------------------|----------------------------------|
|------------------------------------------|----------------------------------|
|
| ~                        ~~                 ~~~
|------------------------------------------|----------------------------------|
|------------------------------------------|----------------------------------|
|------------------------------------------|----------------------------------|
|------------------------------------------|-----------------------7----------|
|-3-----------(3)-5S=======2---------(2)-5S|==1-------(1)-------1S=5----------|
|------------------------------------------|----------------------------------|


|-20s19--------------20s19-20-22-(22)\---|-/10s=12--13s=17s==||
|-------20-20-(20)-----------------------|-/11S=13--15S=18S==||
|----------------------------------------|-------------------||
|----------------------------------------|-------------------||
|----------------------------------------|-------------------||
|----------------------------------------|-------------------||
|
|  ~~~                ~~~
|----------------------------------------|-------------------||
|----------------------------------------|-------------------||
|----------------------------------------|-------------------||
|----------------------------------------|-------------------||
|--3-----------(3)-5S=2-----------(2)--5S|===1---------------||
|----------------------------------------|-------------------||


|-19------------------------------|-(19)\------------------------------|
|-20------------------------------|-(20)\------------------------------|
|---------------------------------|------------------------------------|
|---------------------------------|------------------------------------|
|---------------------------------|------------------------------------|
|---------------------------------|------------------------------------|
|
| Gtr III
|----------0---3----------0---3---|-------------0---3----------0---3---|
|------3-----3---3----3-----3---3-|---------3-----3---3----3-----3---3-|
|----4---4----------4---4---------|-------4---4----------4---4---------|
|--5------------------------------|---5--------------------------------|
|---------------------------------|------------------------------------|
|---------------------------------|------------------------------------|


  Gtr III
|-------0----|---------0---3----------0---3---|
|-1---3-3----|-----3-----3---3----3-----3---3-|
|-2---4-0----|---4---4----------4---4---------|
|-2---4-2----|-5------------------------------|
|-0---2-3----|--------------------------------|
|------------|--------------------------------|


|-----0------0--|---------0---3----------0---3---|
|-1-----0-3--3--|-----3-----3---3----3-----3---3-|
|-2-------4--0--|---4---4----------4---4---------|
|-2-------4--2--|-5------------------------------|
|-0-------2--3--|--------------------------------|
|---------------|--------------------------------|


  Gtr I
|--------0-(0)----|-(0)----*|
|--------3-(3)----|-(3)----*|
|-5--5---0-(0)----|-(0)----*|
|-2--2-4-2-(2)----|-(2)----*|
|-0--0-2-3-(3)----|-(3)----*|
|-----------------|--------*|

SAME OL' SITUATION transcribed by unregistered, valkeyrie3@hotmail.com

drop d tuning on all guitars

gtr 1- x4
d--5-5-5---5-5-5-5-5---5-5-5---0-0-0-0-0-|
g--5-5-5---4-4-4-4-4---3-3-3---2-2-2-2-2-|
c--2-2-2---2-2-2-2-2---2-2-2---2-2-2-2-2-|
f----------------------------------------|
a----------------------------------------|
d----------------------------------------|

gtr 2- x4, play everytime gtr 1 starts over
d----
g----
c--2-
f--2-
a--0-
d----

verse

gtr 1,2- x2
d----------------------|
g----------------------|
c--2--2-2---2----------|
f--2--2-2---2---2--2-2-|
a--0--0-0---0---2--2-2-|
d---------------0--0-0-|

gtr 1- x2
d----------------------------------------------------|
g----------------------------------------------------|
c--2------------2------------------------------------|
f--2--4--5--4---2--4--5--4---2------------2----------|
a--0--0--0--0---0--0--0--0---2--4--5--4---2--4--5--4-|
d----------------------------0--0--0--0---0--0--0--0-|

gtr 2- x2
d----------------------|
g----------------------|
c--2--2-2---2----------|
f--2--2-2---2---2--2-2-|
a--0--0-0---0---2--2-2-|
d---------------0--0-0-|

pre-chorus
gtr 1
d----------------------------------------------------------------------|
g--------------------------------------------------------------4-----4-|
c-----2-2-----7-7----------7------7-----------7-6-5-4--4-4-----4-----4-|
f--2--2-2--2--7-7--7-------7------7--7-7------7-6-5-4--4-4-5-6---5-6---|
a--2--0-0--2-------7--8-9-----8-9----7-7--8-9--------------------------|
d--0-------0-----------------------------------------------------------|

gtr 2
d-----------------------------------------------------|
g-----------------------------------------------------|
c--2-2---------7-7----------------------------7-6-5-4-|
f--2-2---------7-7----------------------------7-6-5-4-|
a--0-0--4-5-4--5-5----------------------------5-4-3-2-|
d-------0-0-0-----------------------------------------|

chorus
gtr 1
d------------------------------------------------------|
g------------------------------------------------------|
c-------------2-2-2--4p2-4-4-4-2---2--2-2--4p2-4-4-4-2-|
f--2--2--2-2--2-2-2--4p2-4-4-4-2---2--2-2--4p2-4-4-4-2-|
a--2--2--2-2--0-0-0----------------0--0-0--------------|
d--0--0--0-0-------------------------------------------|

gtr 2
d------------|
g------------|
c------------|
f--2--2--2-2-|
a--2--2--2-2-|
d--0--0--0-0-|

gtr 1
d------------------------------------------------------------------------|
g------------------------------------------------------------------------|
c----------------------------------2-2-2--4p2-4-4-4-2--2-2-2-4p2-4-4-4-2-|
f----------------------------------2-2-2--4p2-4-4-4-2--2-2-2-4p2-4-4-4-2-|
a--2-2-2--4--5--4--2-2-2--4--5--4--0-0-0---------------0-0-0-------------|
d--0-0-0--0--0--0--0-0-0--0--0--0----------------------------------------|

gtr 2
d--------------------------------|
g---------0-0-0------------0-0-0-|
c--9-9-9-------------------------|
f--9-9-9-------------------------|
a--7-7-7-------------------------|
d--------------------------------|

gtr 1                               "i say no, no, no..."
d------------------------------------------------------------------------|
g--------------------------------------8p7----10p8-7------10-8p7--8p7----|
c----------------------------------7-7-----7---------7--7--------------7-|
f----------------------------------7-7-----------------------------------|
a--2-2-2--4--5--4--2-2-2--4--5--4----------------------------------------|
d--0-0-0--0--0--0--0-0-0--0--0--0----------------------------------------|

gtr 2
d------------------------------------------------------------------------|
g--0-0-0------------0-0-0------------------------------------------------|
c----------------------------------7-7--------7-----7------------7-6-5-4-|
f----------------------------------7-7--7-----7-----7--7-7-------7-6-5-4-|
a---------------------------------------7-8-9---8-9----7-7--8-9----------|
d------------------------------------------------------------------------|

gtr 1                 nh
d------------------------|
g-------7-5p4--5p4----5^-|
c--4-4-------------4-----|
f--4-4-------------------|
a------------------------|
d------------------------|

gtr 2
d------------------------|
g------------------------|
c--4-4-------4--------4--|
f--4-4-------4--------4--|
a-------5--6----5--6--2--|
d------------------------|

gtr 1- x4
d--5-5-5---5-5-5-5-5---5-5-5---0-0-0-0-0----|
g--5-5-5---4-4-4-4-4---3-3-3---2-2-2-2-2--x-|
c--2-2-2---2-2-2-2-2---2-2-2---2-2-2-2-2----|
f-------------------------------------------|
a-------------------------------------------|
d-------------------------------------------|

gtr 2- x4, play everytime gtr 1 starts over
d-------------------------------------------|
g-------------------------------------------|
c--2----------------------------------------|
f--2--------------------------------------x-|
a--0----------------------------------------|
d-------------------------------------------|

verse
gtr 1,2- x2
d----------------------|
g----------------------|
c--2--2-2---2----------|
f--2--2-2---2---2--2-2-|
a--0--0-0---0---2--2-2-|
d---------------0--0-0-|

gtr 1- x2
d----------------------------------------------------------|
g----------------------------------------------------------|
c--2------------2-------------------------------------7-/9-|
f--2--4--5--4---2--4--5--4---2------------2-----------7-/9-|
a--0--0--0--0---0--0--0--0---2--4--5--4---2--4--5--4--5-/7-|
d----------------------------0--0--0--0---0--0--0--0-------|

gtr 2- x2
d-------------------------|
g-------------------------|
c--2--2-2---2-----------7-|
f--2--2-2---2---2--2-2--7-|
a--0--0-0---0---2--2-2----|
d---------------0--0-0----|


chorus
gtr 1
d------------------------------------------------------|
g------------------------------------------------------|
c-------------2-2-2--4p2-4-4-4-2---2--2-2--4p2-4-4-4-2-|
f--2--2--2-2--2-2-2--4p2-4-4-4-2---2--2-2--4p2-4-4-4-2-|
a--2--2--2-2--0-0-0----------------0--0-0--------------|
d--0--0--0-0-------------------------------------------|

gtr 2
d------------|
g------------|
c------------|
f--2--2--2-2-|
a--2--2--2-2-|
d--0--0--0-0-|

gtr 1                               "i say no, no, no..."
d----------------------------------------------------------------------------|
g--------------------------------------8-7---10-8-7------10-8p7--8p7---------|
c----------------------------------7-7--------------7--7--------------7--4-4-|
f----------------------------------7-7-----------------------------------4-4-|
a--2-2-2--4--5--4--2-2-2--4--5--4--------------------------------------------|
d--0-0-0--0--0--0--0-0-0--0--0--0--------------------------------------------|

gtr 2
d------------------------------------------------------------------------|
g--0-0-0------------0-0-0------------------------------------------------|
c----------------------------------7-7--------7-----7------------7-6-5-4-|
f----------------------------------7-7--7-----7-----7--7-7-------7-6-5-4-|
a---------------------------------------7-8-9---8-9----7-7--8-9----------|
d------------------------------------------------------------------------|

gtr 1
d--------------------|
g--5-4--7-4----------|
c------------4/16~~^-|
f--------------------|
a--------------------|
d--------------------|

gtr 2
d----------------------------|
g----------------------------|
c--4-4------4------4-------4-|
f--4-4------4------4-------4-|
a-------5-6----5-6----5-6--2-|
d----------------------------|

STICKY SWEET transcribed by Andrew Zara

drop d tuning

h- hammer on
p- pull off
/- slide up
\- slide down
x- palm mute
\/- arm down
^- arm up
ph- pinch harmonic

intro
d-------------------------|
g-------------------------|
c----0---2-0----------2---|
f--2---2-----2------------|
a--------------0-3h4----0-|
d-------------------------|

d--------------------------3-3-|
g--------------------------3-3-|
c----0---2-0----------2----0-2-|
f--2---2-----2----------2--0-0-|
a--------------0-3h4-------x-x-|
d--------------------------3-2-|

d-------------------------|
g-------------------------|
c----0---2-0----------2---|
f--2---2-----2------------|
a--------------0-3h4----0-|
d-------------------------|

d------------------------------|
g----------------------------3-|
c----0---2-0----------2----0-2-|
f--2---2-----2----------2--0-0-|
a--------------0-3h4-------x---|
d--------------------------3---|

d-------------------------|
g-------------------------|
c----0---2-0----------2---|
f--2---2-----2------------|
a--------------0-3h4----0-|
d-------------------------|

d--------------------------------------------------------------|
g-------------------------------------------------------8-8-8--|
c-------------------------9-7--7-9--9-7--7-9--9-7--7-9--7-7-7--|
f--7-----7-----7-----7----9-7--7-9--9-7--7-9--9-7--7-9--x-x-x--|
a----4-4---5-5---6-6---7--------------------------------7-7-7--|
d--------------------------------------------------------------|

d------------------------------------|
g------------------------------------|
c--9-7--7-9--9-7--7-9--9-7--7-9--9-9-|
f--9-7--7-9--9-7--7-9--9-7--7-9--9-9-|
a------------------------------------|
d------------------------------------|

verse
                   ph
d----------------------------8p7-----------------------------------|
g----------------------------7p7-----------------------------------|
c------2--0--2-2--4-4--4-4p2-7p7-4p2---2-----2--0--2-2-------------|
f------2--0--2-2--------------------4--------2--0--2-2----7----7---|
a--x\--0--x--0-0-------------------------3---0--x--0-0--4---4----5-|
d---------3-------------------------------------3------------------|

              ph    ph
d------------------------------------------------3-3-|
g-------------20-\/------------------------------3-3-|
c--2--0--2-2--------4-4-4p2-4p2----2----2--0--2--0-2-|
f--2--0--2-2--------------------4-------2--0--2--0-0-|
a--0--x--0-0-------------------------3--0--x--0--x-x-|
d-----3------------------------------------3-----3-2-|

chorus
d--------------------------------------------------------------------------|
g--------------------------------8-8-8-------------------------------------|
c--9-7--7-9--9-7--7-9--9-7--7-9--7-7-7--9-7--7-9--9-7--7-9--7-5--5--4--3-3-|
f--9-7--7-9--9-7--7-9--9-7--7-9--x-x-x--9-7--7-9--9-7--7-9--7-5--5--4--3-3-|
a--------------------------------7-7-7-------------------------------------|
d--------------------------------------------------------------------------|

intro again
d-------------------------|
g-------------------------|
c----0---2-0----------2---|
f--2---2-----2------------|
a--------------0-3h4----0-|
d-------------------------|

d--------------------------3-3-|
g--------------------------3-3-|
c----0---2-0----------2----0-2-|
f--2---2-----2----------2--0-0-|
a--------------0-3h4-------x-x-|
d--------------------------3-2-|

d-------------------------|
g-------------------------|
c----0---2-0----------2---|
f--2---2-----2------------|
a--------------0-3h4----0-|
d-------------------------|

d------------------------------|
g----------------------------3-|
c----0---2-0----------2----0-2-|
f--2---2-----2----------2--0-0-|
a--------------0-3h4-------x---|
d--------------------------3---|

verse
                   ph
d----------------------------8p7-----------------------------------|
g----------------------------7p7-----------------------------------|
c------2--0--2-2--4-4--4-4p2-7p7-4p2---2-----2--0--2-2-------------|
f------2--0--2-2--------------------4--------2--0--2-2----7----7---|
a--x\--0--x--0-0-------------------------3---0--x--0-0--4---4----5-|
d---------3-------------------------------------3------------------|

              ph    ph
d------------------------------------------------3-3-|
g-------------20-\/------------------------------3-3-|
c--2--0--2-2--------4-4-4p2-4p2----2----2--0--2--0-2-|
f--2--0--2-2--------------------4-------2--0--2--0-0-|
a--0--x--0-0-------------------------3--0--x--0--x-x-|
d-----3------------------------------------3-----3-2-|

chorus
d--------------------------------------------------------------------------|
g--------------------------------8-8-8-------------------------------------|
c--9-7--7-9--9-7--7-9--9-7--7-9--7-7-7--9-7--7-9--9-7--7-9--7-5--5--4--3-3-|
f--9-7--7-9--9-7--7-9--9-7--7-9--x-x-x--9-7--7-9--9-7--7-9--7-5--5--4--3-3-|
a--------------------------------7-7-7-------------------------------------|
d--------------------------------------------------------------------------|

intro again
d-------------------------|
g-------------------------|
c----0---2-0----------2---|
f--2---2-----2------------|
a--------------0-3h4----0-|
d-------------------------|

d--------------------------3-3-|
g--------------------------3-3-|
c----0---2-0----------2----0-2-|
f--2---2-----2----------2--0-0-|
a--------------0-3h4-------x-x-|
d--------------------------3-2-|

d-------------------------|
g-------------------------|
c----0---2-0----------2---|
f--2---2-----2------------|
a--------------0-3h4----0-|
d-------------------------|

d------------------------------|
g----------------------------3-|
c----0---2-0----------2----0-2-|
f--2---2-----2----------2--0-0-|
a--------------0-3h4-------x---|
d--------------------------3---|

SOLO-

SHE GOES DOWN transcribed by Andrew Zara

drop d tuning on all guitars

h- hammer on
p- pull off
\\\\/- arm down
ph- pinch harmonic
\\\\- slide down
/- slide up
(#)- note in parenthesis is a ghost note

intro
d----------------------------------------------|
g----------------------------------------------|
c------------------------2-2-------------------|
f--2-2--4p2p0------------2-2--4p2p0------------|
a--2-2---------4p2p0-----0-0---------4p2p0-----|
d--0-0----------------3---------------------3--|

d---------------------------------------------------|
g---------------------------------------------------|
c------------------------2-2-------------------2--2-|
f--2-2--4p2p0------------2-2--4p2p0------------2--2-|
a--2-2---------4p2p0-----0-0---------4p2p0-----0--0-|
d--0-0----------------3---------------------3-------|

                              gtr 2 comes in here
d-----------------------------3-4--3-4-|
g-----------------------------2-3--2-3-|
c-----------------------------3-4--3-4-|
f-------------2------------2-----------|
a--------------------2--4--2-----------|
d--3-4--0-3-4---3--4-------0-----------|

gtr 2
d--14~--14-14-14-12--------------------12-12-12-14-14\\\\-----12-------14--------|
g--------------------14-12-12----12-14-------------------------------------------|
c-----------------------------13------------------------/13----13/14----14/15----|
f--------------------------------------------------------------------------------|
a--------------------------------------------------------------------------------|
d--------------------------------------------------------------------------------|

d--15-------16-16-16----17-------19-------20-------21-21-21-(21)-|
g-----15/16------------------------------------------------------|
c--------------------18----18/19----19/20----20/21---------------|
f----------------------------------------------------------------|
a----------------------------------------------------------------|
d----------------------------------------------------------------|

played under gtr 2s soloing
d--4--------------------3-4--3-4--4----------------------------------|
g--3--------------------2-3--2-3--3----------------------------------|
c--4--------------------3-4--3-4--4--------------------------------4-|
f-----------------------------------------------------2-4----2-4---5-|
a-----2-4---2-4----------------------2-4----2-4-----0-----0------0-0-|
d---------0-----3-0--0--------------------0-----3-4------------------|

verse
d---------------------------------------------------------------------|
g---------------------------------------------------------------------|
c--(4)---2----------------------------------------------------------4-|
f--(5)---4---2---------2-4---2-4-------2-4---2-4--------2-4---2-4---5-|
a--(0)-0-0-0---3-4-0-0-----0-----3-0-0-----0------3-0-0-----0-----0-0-|
d---------------------------------------------------------------------|

gtr 2
d----------------------------------------------------|
g----------------------12-12-10-10-10-12-12-12-(12)--|
c----------------------------------------------------|
f----------------------------------------------------|
a----------------------------------------------------|
d----------------------------------------------------|

d---------------------------------------------------------3-4--3-4-|
g---------------------------------------------------------2-3--2-3-|
c--(4)---2------------------------------------------------3-4--3-4-|
f--(5)---4---2---------2-4---2-4-------2-4---2-4-------------------|
a--(0)-0-0-0---3-4-0-0-----0-----3-0-0-----0-----------------------|
d-------------------------------------------------3-4--0-----------|

gtr 2
d------------------------------------19-19-17-17-------------------|
g------------------------------------------------19-19-17-17-19-19-|
c------------------------------------------------------------------|
f------------------------------------------------------------------|
a------------------------------------------------------------------|
d------------------------------------------------------------------|

d-------------------3-4--3-4-(4)-|
g-------------------2-3--2-3-(3)-|
c-------------------3-4--3-4-(4)-|
f--------------------------------|
a--2-4---2-4---------------------|
d------0-----3-0-0---------------|

gtr 2
                  ph
d--------------------------------------|
g----------12-12-----------------------|
c-----9-9--9--9---9-(9)----------------|
f-----9-9------------------------------|
a--------------------------------------|
d-----------------------------0-\\\\/--|

chorus
d-----------------------------0--------------------------------------|
g-----------------------------0--------------------------------------|
c-----------------------------------------------2-(2)----------------|
f------------4p2p0----------2----4p2p0----------2-(2)-4p2p0----------|
a--2-4----2--------4p2p0----2----------4p2p0----0-(0)--------4p2p0---|
d------0-----------------3--0----------------3---------------------3-|

d----0-----------------------------------------------|
g----0-----------------------------------------------|
c----------------------2-(2)-------------------------|
f--2----4p2p0----------2-(2)------------2----------2-|
a--2----------4p2p0----0-(0)------------------2-4--2-|
d--0----------------3--------3-4-0-3-4----3-4------0-|

gtr 2
d-------------------------------------------14-14-14-|
g----------------------------------------------------|
c----------------------------------------------------|
f----------------------------------------------------|
a----------------------------------------------------|
d----------------------------------------------------|

verse
d-----------------------------------------------------------------|
g-----------------------------------------------------------------|
c----2----------------------------------------------------------4-|
f----4---2---------2-4---2-4-------2-4---2-4--------2-4---2-4---5-|
a--0-0-0---3-4-0-0-----0-----3-0-0-----0------3-0-0-----0-----0-0-|
d-----------------------------------------------------------------|

gtr 2
d----------------------------------------------------|
g----------------------12-12-10-10-10-12-12-12-(12)--|
c----------------------------------------------------|
f----------------------------------------------------|
a----------------------------------------------------|
d----------------------------------------------------|

d---------------------------------------------------------3-4--3-4-|
g---------------------------------------------------------2-3--2-3-|
c--(4)---2------------------------------------------------3-4--3-4-|
f--(5)---4---2---------2-4---2-4-------2-4---2-4-------------------|
a--(0)-0-0-0---3-4-0-0-----0-----3-0-0-----0-----------------------|
d-------------------------------------------------3-4--0-----------|

gtr 2
d------------------------------------19-19-17-17-------------------|
g------------------------------------------------19-19-17-17-19-19-|
c------------------------------------------------------------------|
f------------------------------------------------------------------|
a------------------------------------------------------------------|
d------------------------------------------------------------------|

d-------------------3-4--3-4-(4)-|
g-------------------2-3--2-3-(3)-|
c-------------------3-4--3-4-(4)-|
f--------------------------------|
a--2-4---2-4---------------------|
d------0-----3-0-0---------------|

gtr 2
                  ph
d--------------------------------------|
g----------12-12-----------------------|
c-----9-9--9--9---9-(9)----------------|
f-----9-9------------------------------|
a--------------------------------------|
d-----------------------------0-\\\\/--|

chorus
d-----------------------------0--------------------------------------|
g-----------------------------0--------------------------------------|
c-----------------------------------------------2-(2)----------------|
f------------4p2p0----------2----4p2p0----------2-(2)-4p2p0----------|
a--2-4----2--------4p2p0----2----------4p2p0----0-(0)--------4p2p0---|
d------0-----------------3--0----------------3---------------------3-|

outro/ solo
d----0-----------------------------------------0----------------|
g----0-----------------------------------------0----------------|
c----------------------2-(2)-----------------2------------------|
f--2----4p2p0----------2-(2)--4p2p0----------2----4p2p0---------|
a--2----------4p2p0----0-(0)--------4p2p0----0----------4p2p0---|
d--0----------------3---------------------3-------------------3-|

gtr 2
d---------------------------------------------------------------------|
g---------------------------------------------12---12-12-------12-----|
c------------------------------------------------14------13-----------|
f-----------------------------------------------------------14-----14-|
a---------------------------------------------------------------------|
d---------------------------------------------------------------------|

DON'T GO AWAY MAD (JUST GO AWAY) transcribed by jailbait, valkeyrie3@hotmail.com

drop d tuning on all guitars

h- hammer on
p- pull off
tr- tremolo
x- muted note
PM- palm mute
nh- natural harmonic
ph- pinch harmonic
\- slide down
/- slide up
(#)- ringing note
~- let ring
x- pick scrape down
\/- arm down

gtr 1 acoustic
gtr 2 electric

intro-
gtr 1    D                               Em                                  G
d--------2--2-----0-----3-----2-----0----0--2-----0-----2-----0--------------3--3-----3-----3-----3-----3-
a--------3----3-----3-----3-----3-----0--0----0-----0-----0-----0------------3----3-----3-----3-----3-----
f--------2------2-----2-----2-----2------0------0-----0-----0-----0----------0------0-----0-----0-----0---
c--------0-------------------------------2-----------------------------------0----------------------------
g----------------------------------------2-----------------------------------x----------------------------
d----------------------------------------0-----------------------------0--2--3----------------------------

gtr 2, under the above part
d-------------------------------------------------------------------------------
a-------------------------------------------------------------------------------
f--------7~---------------------------------------------------------------------
c--------7~------------------------------2~----------------------------2--4--5~-
g--x\----5~------------------------------2~----------------------------2--4--5~-
d----------------------------------------0~----------------------------0--2--3~-

gtr 1             gtr 2
d--3-2-0-2~-|-----------
a--3-3-3-3~-|--7-8-5-7~-
f--2-2-2-2~-|--7-7-7-7~-
c--0-0-0-0~-|--7-7-7-7~-
g-----------|--5-5-5-5~-
d-----------|-----------
                                   oh    yeah
d--2-2-2-2-2-2-2--0-0-2-0-0-0-0--2-2-2-2-2-3-0--2-2-2-2-2-2-2-2--0-0-2-0-0-0-0--3-3-3-3-3-3-3--
a--3-3-3-3-3-3-3--0-0-0-0-0-0-0--3-3-3-3-3-3-3--3-3-3-3-3-3-3-3--0-0-0-0-0-0-0--3-3-3-3-3-3-3--
f--2-2-2-2-2-2-2--0-0-0-0-0-0-0--2-2-2-2-2-2-2--2-2-2-2-2-2-2-2--0-0-0-0-0-0-0--0-0-0-0-0-0-0--
c--0-0-0-0-0-0-0--2-2-2-2-2-2-2--0-0-0-0-0-0-0--0-0-0-0-0-0-0-0--2-2-2-2-2-2-2--0-0-0-0-0-0-0--
g-----------------2-2-2-2-2-2-2----------------------------------2-2-2-2-2-2-2--x-x-x-x-x-x-x--
d-----------------0-0-0-0-0-0-0----------------------------------0-0-0-0-0-0-0--3-3-3-3-3-3-3--

gtr 2, under the above part
d-------------------------------------------------------------------------------------------
a-------------------------------------------------------------------8----7-7--10-10-(10)~~~-
f--7----7----7-----9-9~----9-7---------7----7----7-----9-9~----9-7--------------------------
c---------9----9----------------7h9------------9----9---------------------------------------
g-------------------------------------------------------------------------------------------
d-------------------------------------------------------------------------------------------

verse- x4, acoustic
d--2-2-2-2-2-2-2--0-0-2-0-0-0-0--2-2-2-2-2-3-0--3-3-3-3-3-3-3-
a--3-3-3-3-3-3-3--0-0-0-0-0-0-0--3-3-3-3-3-3-3--3-3-3-3-3-3-3-
f--2-2-2-2-2-2-2--0-0-0-0-0-0-0--2-2-2-2-2-2-2--0-0-0-0-0-0-0-
c--0-0-0-0-0-0-0--2-2-2-2-2-2-2--0-0-0-0-0-0-0--0-0-0-0-0-0-0-
g-----------------2-2-2-2-2-2-2-----------------x-x-x-x-x-x-x-
d-----------------0-0-0-0-0-0-0-----------------3-3-3-3-3-3-3-

electric, played underneath the above on the 3rd and 4th time through 
(Seasons must change...)
d--5-5----2-2---0-0-----5-5--2-0----5-5-5--3-3-
a--3-3----3-3---3-3-----3-3--3-3----3-3-3--3-3-
f--2-2----2-2---2-2-----4-4--4-4----4-4-4--4-4-
c----------------------------------------------
g----------------------------------------------
d----------------------------------------------
                                       
(Guess we knew it all along...)       nh nh
d----------------------------------------------------------------------------
a--10~---(10)----(10)--10--10~--(10)-----------------------------15~----(15)-
f-----------------------------------------7--7\/-(7)\/-(7)\/-----------------
c--------------------------------------7-------------------------------------
g----------------------------------------------------------------------------
d----------------------------------------------------------------------------

pre chorus, electric
d--------------------------2-3--3-2-0-2-------------------------
a--------------------------3-3--3-3-3-3-------------------------
f--------------------------2-2--2-2-2-2-------------------------
c--------------------------0-0--0-0-0-0-------------------------
g--3-3--3-2-0----------------------------3-3--3-2-0-------------
d--------------3-3--3-2-0----------------------------3-3--3-2-0-

acoustic
d--2-2-2-2-2-2-2--0-0-2-0-0-0-0--3-3-3-3-3-3-3--2-2-2-2-2-2-2-
a--3-3-3-3-3-3-3--0-0-0-0-0-0-0--3-3-3-3-3-3-3--3-3-3-3-3-3-3-
f--2-2-2-2-2-2-2--0-0-0-0-0-0-0--0-0-0-0-0-0-0--2-2-2-2-2-2-2-
c--0-0-0-0-0-0-0--2-2-2-2-2-2-2--0-0-0-0-0-0-0--0-0-0-0-0-0-0-
g-----------------2-2-2-2-2-2-2--x-x-x-x-x-x-x----------------
d-----------------0-0-0-0-0-0-0--3-3-3-3-3-3-3----------------

electric
d---------------------10---------------------------
a-----------------------10-------------------------
f----------7--9-9~--9------9-9--9--9p7--9--9~--(9)-
c--12~---9-----------------------------------------
g--------------------------------------------------
d--------------------------------------------------

verse- x2, acoustic
d--2-2-2-2-2-2-2--0-0-2-0-0-0-0--2-2-2-2-3-2-0--3-3-3-3-3-3-3-
a--3-3-3-3-3-3-3--0-0-0-0-0-0-0--3-3-3-3-3-3-3--3-3-3-3-3-3-3-
f--2-2-2-2-2-2-2--0-0-0-0-0-0-0--2-2-2-2-2-2-2--0-0-0-0-0-0-0-
c--0-0-0-0-0-0-0--2-2-2-2-2-2-2--0-0-0-0-0-0-0--0-0-0-0-0-0-0-
g-----------------2-2-2-2-2-2-2-----------------x-x-x-x-x-x-x-
d-----------------0-0-0-0-0-0-0-----------------3-3-3-3-3-3-3-

electric, end of 2nd time through (Sleepin half the day...)
d------------------
a--10-10--10~-(10)-
f------------------
c------------------
g------------------
d------------------

electric, played underneath the verse on the 3rd and 4th time through 
(They said i could crash...)
d--5-5----2-2---0-0-----5-5--2-0----5-5-5--3-3--15p14-15p14-15p14-15p14-------
a--3-3----3-3---3-3-----3-3--3-3----3-3-3--3-3--------------------------15-15-
f--2-2----2-2---2-2-----4-4--4-4----4-4-4--4-4--------------------------------
c-----------------------------------------------------------------------------
g-----------------------------------------------------------------------------
d-----------------------------------------------------------------------------

pre chorus, electric
d--------------------------2-3--3-2-0-2-------------------------
a--------------------------3-3--3-3-3-3-------------------------
f--------------------------2-2--2-2-2-2-------------------------
c--------------------------0-0--0-0-0-0-------------------------
g--3-3--3-2-0----------------------------3-3--3-2-0-------------
d--------------3-3--3-2-0----------------------------3-3--3-2-0-

d--------------------------2-3--3-2-0-2-------------------------
a--------------------------3-3--3-3-3-3-------------------------
f--------------------------2-2--2-2-2-2-------------------------
c--------------------------0-0--0-0-0-0-------------------------
g--3-3--3-2-0----------------------------3-3--3-2-0-------------
d--------------3-3--3-2-0----------------------------3-3--3-2-0-

(Let our minds runaway...)
d------------------------------------2-3--3-2-0-2-------------------------
a------------------------------------3-3--3-3-3-3-------------------------
f------------------------------------2-2--2-2-2-2-------------------------
c------------------------------------0-0--0-0-0-0-------------------------
g--x\----0-2-3-3--3-2-0----------------------------3-3--3-2-0-------------
d------------------------3-3--3-2-0----------------------------3-3--3-2-0-

electric played underneath the above
d------------------15-14-----------------------17-15--------------------
a------------------------15-------15-----15-15-------17-17-17-15~--(15)-
f--14-------14-14-----------16-16---------------------------------------
c-----12-12---------------------------17--------------------------------
g-----------------------------------------------------------------------
d-----------------------------------------------------------------------

                                                  PM----------|
d----------------------------------3-3--------------------------
a----------------------------------3-3--------------------------
f---------------------------------------------------------------
c----------------------------------------------2--2-2-2-2-2-2-2-
g--0-2-3-3--3-2-0------------------------------0--0-0-0-0-0-0-0-
d-----------------3-3--3-2-0-3-3-3------3-2-x-------------------

electric, under the above part
d--------15-14-----17-17-15-14-15-15-14-----17-17-15------------------------
a---------------15-----------------------15-----------17-17~---(17)----(17)-
f---------------------------------------------------------------------------
c---------------------------------------------------------------------------
g--x\-----------------------------------------------------------------------
d---------------------------------------------------------------------------

(It goes this way...)
d------------------
a------------------
f--4---4---4---4---
c--5-x-5-x-5-x-5-x-
g------------------
d------------------

chorus
gtr 1
d--2-3--3-2--4-5--5-4--7-8--8-7--2-3--3-2------
a--3-3--3-3--5-5--5-5--8-8--8-8--3-3--3-3------
f--2-2--2-2--4-4--4-4--7-7--7-7--2-2--2-2------
c----------------------------------------------
g------------------------------------------0-2-
d----------------------------------------------

gtr 2
d------------------------------------------------
a--7-8-8-7--9-10-10-9--12-13-13-12--7-8-8-7------
f--7-7-7-7--9-9--9--9--12-12-12-12--7-7-7-7------
c--7-7-7-7--9-9--9--9--12-12-12-12--7-7-7-7------
g--5-5-5-5--7-7--7--7--10-10-10-10--5-5-5-5--0-2-
d------------------------------------------------

solo- chorus underneath
                     ph         -ph-                       -ph-
d--------------------------------------7--------------------------------------------------------14-15-17-----
a-----------------------------------------10-10-10-------------------15----15-15~-15---15-17-17----------15~-
f------7~--7---7-9--9--9~~--7--9--9~-9-----------------------------16---16-----------16----------------------
c-7h9--------9--------------------------------------0-0------------------------------------------------------
g--------------------------------------------------------7--7-(7)--------------------------------------------
d------------------------------------------------------------------------------------------------------------

d--17-17-17--17-17-14-15-14h15p1412--14h14p1210-10\-------10--10--10-10-10---10--10--10-10-10---10--10-10---
a----------------------------------------------------0--13--13--13---------13--13--13---------13--13-----13-
f-----------------------------------------------------------------------------------------------------------
c-----------------------------------------------------------------------------------------------------------
g-----------------------------------------------------------------------------------------------------------
d-----------------------------------------------------------------------------------------------------------

d--10-10--10-10---10-----10--10----------------------------------------------------------------------
a-------13------13--13-13--13--13-10----13-13--13-12-10------10--------------------------------------
f------------------------------------13-----------------13-12---13-12-10-12-12-10--------------------
c---------------------------------------------------------------------------------12-10----------12~-
g---------------------------------------------------------------------------------------12-10-8-8----
d----------------------------------------------------------------------------------------------------

picking tremolo------------------------------------------------|
d--12-10-12-14-12-14-15-14-15-17--19-17-17-19-21-19-19-21-22-(22)---22-22-22-(22)-
a---------------------------------------------------------------------------------
f---------------------------------------------------------------------------------
c---------------------------------------------------------------------------------
g---------------------------------------------------------------------------------
d---------------------------------------------------------------------------------

inerlude- x3
     PM    PM   PM     PM
d--10---9-----7-----5------
a--10---10----8-----5------
f--11---9-----7-----7------
c-----0----0-----0-----0-0-
g--------------------------
d--------------------------

during interlude 2nd time through
d--22~-14------15-15----22~-14---------22----14------15-15-14----14------------14-15-15-15----22~--(22)-
a---------15-------------------15----15--15-----15------------15----15----15~--------------17-----------
f-----------14--------------------14--------------14-------------------14-------------------------------
c-------------------------------------------------------------------------------------------------------
g-------------------------------------------------------------------------------------------------------
d-------------------------------------------------------------------------------------------------------

d---------------------
a---------------------
f--5-5-5--4-4-4--2--0-
c--5-5-5--5-5-5--2--0-
g--3-3-3--2-2-2--0--x-
d-------------------3-

chorus- x4
gtr 1
d--2-3--3-2--4-5--5-4--7-8--8-7--2-3--3-2------
a--3-3--3-3--5-5--5-5--8-8--8-8--3-3--3-3------
f--2-2--2-2--4-4--4-4--7-7--7-7--2-2--2-2------
c----------------------------------------------
g------------------------------------------0-2-
d----------------------------------------------

gtr 2
d------------------------------------------------
a--7-8-8-7--9-10-10-9--12-13-13-12--7-8-8-7------
f--7-7-7-7--9-9--9--9--12-12-12-12--7-7-7-7------
c--7-7-7-7--9-9--9--9--12-12-12-12--7-7-7-7------
g--5-5-5-5--7-7--7--7--10-10-10-10--5-5-5-5--0-2-
d------------------------------------------------

outro solo, chorus underneath, start at end of 4th chorus
d--------------------------------------------------------7------------------------------------------
a--8-----------------------7------------------------7~~----7-----------7----7-7---------------15----
f----9-9-9-9p7--9-9-9~--(9)--7--7--9tr-11p9h11p7~-9-9~~-------9-9p7--9-9--9-9-9--9p7--9-9--16----16-
c---------------------------------------------------------------------------------------------------
g---------------------------------------------------------------------------------------------------
d---------------------------------------------------------------------------------------------------

d-------------------------17-17-17-17-(17)--17-17-15-17-15h17p1514-14h15p14------------17\--14h15p1412-
a--15-15-15--15----15-15------------------------------------------------------17-17-17-----------------
f---------------16-------------------------------------------------------------------------------------
c------------------------------------------------------------------------------------------------------
g------------------------------------------------------------------------------------------------------
d------------------------------------------------------------------------------------------------------

                                                                       ph 
d--12h14p1210-10-10-----------10-10\---------10----------------------------
a--------------------13-10--13--------13-13-----13-10-----10---------------
f------------------------------------------------------13----13-11-9-11-11-
c--------------------------------------------------------------------------
g--------------------------------------------------------------------------
d--------------------------------------------------------------------------

gtr playing chorus
 girl, just go  a  -  way
d--7----8----7--15-------
a--8---------------------
f--7-------------------7-
c----------------------5-
g----------------------5-
d------------------------

d--22-22-22-22-22--22-22\---19h22p1917--17h19p1715--15h17p15p1412--12h14p1210--10h12p10-(10)tr-(12)p(10)\/--
a------------------------------------------------------------------------------------------------------------
f------------------------------------------------------------------------------------------------------------
c------------------------------------------------------------------------------------------------------------
g------------------------------------------------------------------------------------------------------------
d------------------------------------------------------------------------------------------------------------

TIME FOR CHANGE transcribed by unregistered

Intro      1st Verse
 

                     Gtr I
|---------||---------||----------------|
|---------||---------||-12\---12-12----|
|---------||---------||-12\---12-12----|
|---------||---------||-14\---14-14----|
|---------||---------||----------------|
|---------||---------||----------------|


|-------------|----------------|--------------|
|-8\---5-5----|-12\---12-12----|-8\---5-5\----|
|-9\---6-6----|-12\---12-12----|-9\---6-6\----|
|-------------|-14\---14-14----|--------------|
|-------------|----------------|--------------|
|-------------|----------------|--------------|


  PM----------------------| ~          PM------|
|-----------------|------------------|-----------------|
|-----------------|------------------|-----------------|
|-----5-------7---|-----4------------|-----5-----5-5---|
|---5-------7-----|---4-----2--0h2p0-|---5---5-5---5---|
|-3-----3-5-----5-|-2-----2----------|-3-----3-3-------|
|-----------------|------------------|-----------------|
|
| Gtr II
|-----------------|---------0--0-----|-----------------|
|-----------------|---------0--0-----|-----------------|
|-5-------7-------|-4-------0--0-----|-5-----------5---|
|-5-------7-------|-4-------2--0-----|-5-----------5---|
|-3-------5-------|-2----------------|-3-----------3---|
|-----------------|------------------|-----------------|


                              Chorus 1
|----------|----------------||-----------|
|----------|----------------||-8---------|
|-7--------|-(7)------------||-7---------|
|-7--------|-(7)----0-2-4p0-||-5---------|
|-5--------|-(5)------------||------9----|
|----------|----------------||-----------|


|-----------|-----------|--------------|
|-----------|-----------|-8------------|
|-9----7----|-5----7----|-7------------|
|-9----7----|-5----7----|-5----0-2-4p2-|
|-7----5----|-3----5----|--------------|
|-----------|-----------|--------------|


|-----------|-----------|------|
|-8---------|-----------|------|
|-7---------|-9----7----|-5----|
|-5---------|-9----7----|-5----|
|------9----|-7----5----|-3----|
|-----------|-----------|------|


             2nd Verse
              PM------------------------------|
|----------||-----------------|-----------------|
|----------||-----3-------3---|-----------------|
|-7--------||---4-------4---4-|-----4-------4---|
|-7--------||-5-----5-4-------|---5-------5-----|
|-5--------||-----------------|-7-----7-5-----5-|
|----------||-----------------|-----------------|


                               Gtr II
                               | | |
                               / / /

  PM---------------------------------------------------|
|-------------------|------------------|------------------|
|-------------------|-----3------------|-----3-------3----|
|-----5-------7-----|---4----4---------|---4-------4---4--|
|---5-------7-------|-5----------------|-5-----5-4--------|
|-3-----3-5-----5-5-|------------------|------------------|
|-------------------|------------------|------------------|
|
| Gtr I
|-------------------|------------------|------------------|
|-------------------|------------------|-8----------------|
|-------------------|------------------|-7----------------|
|-------------------|----------0-2-4p0-|-5----------------|
|-------------------|------------------|------------------|
|-------------------|-----x\-----------|------------------|


                                         |   |  |  |  |  |   |
                                         /   /  /  /  /  /   /

  PM----------------------------|
|-----------------|-------------------|--------------------------|
|-----------------|-------------------|-12\----------12-12-------|
|-----4-------4---|-----5--------7----|-12\----------12-12-------|
|---5-------5-----|---5-------7-------|-14\----------14-14-------|
|-7-----7-5-----5-|-3-----3-5---------|--------------------------|
|-----------------|-------------------|--------------------------|
|
|                         Gtr II
|-----------------|-------------------|--------------------------|
|-8---------------|-------------10-10-|-12--12-12-12-12-12--12---|
|-7---------------|-------------11-11-|-12--12-12-12-12-12--12---|
|-5---------------|-------------12-12-|-14--14-14-14-14-12--12---|
|-----------------|-------------------|--------------------------|
|-----------------|-------------------|--------------------------|


   |   |  |  | | |  |     |   |  |  |  |  |   |     |   |  |  | | |   |
   /   /  /  / / /  /     /   /  /  /  /  /   /     /   /  /  / / /   /

|----------------------|-------------------------|-----------------------|
|--8\----------5-5-----|-12\----------12-12------|--8\----------5-5\-----|
|--9\----------6-6-----|-12\----------12-12------|--9\----------6-6\-----|
|----------------------|-14\----------14-14------|-----------------------|
|----------------------|-------------------------|-----------------------|
|----------------------|-------------------------|-----------------------|
|
|----------------------|-------------------------|-----------------------|
|--8---8--8--8-5-5--5--|-12--12-12-12-12-12--12--|--8---8--8--8-5-5---5--|
|--9---9--9--9-6-6--6--|-12--12-12-12-12-12--12--|--9---9--9--9-6-6---6--|
|-10--10-10-10-7-7--7--|-14--14-14-14-14-12--12--|-10--10-10-10-7-7---7--|
|----------------------|-------------------------|-----------------------|
|----------------------|-------------------------|-----------------------|


  |       |         |       |  |       |           |
  /       /         /       /  /       /           /

  PM----------------------|            PM------|
|-----------------|------------------|-----------------|
|-----------------|------------------|-----------------|
|-----5-------7---|-----4------------|-----5-----5-5---|
|---5-------7-----|---4-----2--0h2p0-|---5---------5---|
|-3-----3-5-----5-|-2-----2----------|-3-----3-3-------|
|-----------------|------------------|-----------------|
|
|-----------------|---------0--0-----|-----------------|
|-----------------|---------0--0-----|-----------------|
|-5-------7-------|-4-------0--0-----|-5-----------5---|
|-5-------7-------|-4-------2--0-----|-5-----------5---|
|-3-------5-------|-2----------------|-3-----------3---|
|-----------------|------------------|-----------------|


                              Chorus 2
  |           |
  /           /

|----------|----------------||-------------|
|----------|----------------||-8-----------|
|-7--------|-(7)------------||-7-----------|
|-7--------|-(7)----0-2-4p0-||-5-----------|
|-5--------|-(5)------------||------9---9S=|
|----------|----------------||-------------|


|-----------|-----------|--------------|
|-----------|-----------|----8---------|
|-9----7----|-5----7----|-7--7---------|
|-9----7----|-5----7----|-5-----0-2-4--|
|-7----5----|-3----5----|--------------|
|-----------|-----------|--------------|


|------------|-----------|-----------|
|-8----------|-----------|-----------|
|-7----------|-9----7----|-5----7----|
|-5----------|-9----7----|-5----7----|
|------9---9-|-7----5----|-3----5----|
|------------|-----------|-----------|


                Guitar Solo
                         ~~~~~                  ~~
|-------------||-----------------------------|---------------------------------|
|-8-----------||-----------------------------|-------15b17r(15)----------------|
|-7-----------||-14b16--14b16----14b16r14p12-|------------------14b16r14p12----|
|-5----0-2-4--||-----------------------------|-14---------------------------14-|
|-------------||-----------------------------|---------------------------------|
|-------------||-----------------------------|---------------------------------|


|-------------------------------------------------|
|-------------------------------------------------|
|-12------12b14==(12)r(12)----12b14==(12)r(12)----|
|------14------------------14------------------14-|
|-------------------------------------------------|
|-------------------------------------------------|


|------------------------------------------------------------------------------------|--------------------------------------|
|------------------------------------------------------------------------------------|--------------------------------------|
|-[12]b14==([12])r([12])b14==([12])r([12])b14==([12])r([12])-------------------------|------------------------------14------|
|------------------------------------------------------------14p12-------------------|------------------------12h14----14---|
|------------------------------------------------------------------14p12-10h12p10----|-10h12p10---12-10-12s14---------------|
|---------------------------------------------------------------------------------12-|--------------------------------------|


|--------------------------------------------------------------------------|
|----------------------------------------------15b17r(15)------------------|
|-12b14==(12)r(12)b14==(12)r(12)b14==(12)r(12)------------14b16r(14)p12----|
|-----------------------------------------------------------------------14-|
|--------------------------------------------------------------------------|
|--------------------------------------------------------------------------|
|
| Gtr I
|--------------------------------------------------------------------------|
|--------------------------------------------------------------------------|
|--------------------------------------------------------------------------|
|--------------------------------------------------------------------------|
|--------------------------------------------------------------------------|
|--------------------------------------------------------------------------|


                            Bridge
|-------------------15-17-||-19-----(19)-19b20r======(19)-|
|-12--13--15--17-19-17-19-||-20-----(20)-20b22r======(20)-|
|-12--14--16--17-19-------||------------------------------|
|-------------------------||------------------------------|
|-------------------------||------------------------------|
|-------------------------||------------------------------|
|
|-------------------------||------------------------------|
|-------------------------||------8--(8)------------------|
|-------------------------||------7--(7)--5----7-9-7---5--|
|-------------------------||------5--(5)------------------|
|-------------------------||--5---------------------------|
|-------------------------||--3---------------------------|


|-17-15--15-17-15-14------------|
|-19-17--17-19-17-15------------|
|-------------------------------|
|-------------------------------|
|-------------------------------|
|-------------------------------|
|
|-------------------------------|
|-------------------------------|
|---------7-------(7)-----------|
|---------7-------(7)-----------|
|--5------5-------(5)-5-7-9-7-5-|
|-------------------------------|


|-15------------------------------|-----------------12----------|
|-17-------------17-19-17-19---17-|-(12)-12-12-15------15-------|
|---------------------------------|-----------------------------|
|---------------------------------|-----------------------------|
|---------------------------------|-----------------------------|
|---------------------------------|-----------------------------|
|
|                                               ~~
|---------------------------------|-----------------------------|
|---------------------------------|-----------------------------|
|------9-(9)----------------------|-----------------------------|
|--9---9-(9)----------------------|-----------------------------|
|--7---7-(7)-7-9-10--9--7s===9s===|=============2----------2-2--|
|---------------------------------|-----------------------------|


|-12---12-(12)-14b15-----|-14--------|-(14)--------|
|-13---13-(13)-15b17-----|-15--------|-(15)--------|
|------------------------|-----------|-------------|
|------------------------|-----------|-------------|
|------------------------|-----------|-------------|
|------------------------|-----------|-------------|
|
|------------------------|-----------|-------------|
|------------------------|-----------|-------------|
|--5----5--(5)-------5-5-|--7--------|--(7)--------|
|--5----5--(5)-------5-5-|--7--------|--(7)--------|
|--3----3--(3)-------3-3-|--5--------|--(5)--------|
|------------------------|-----------|-------------|


                                      Chorus 3
|-----------------------------------||-5-----------|-(5)-------------|
|---------------------2---3-5-3-5-7-||-------------|-----------------|
|--------------2-3-5----------------||-------------|-----------------|
|--------2-4-6----------------------||-------------|-11---11--9--9---|
|-----------------------------------||-7--7--------|--9----9--7--7---|
|-----------------------------------||-5--5--4--4--|-----------------|
|
|  ~~~
|-----------------------------------||-------------|-----------------|
|-----------------------------------||-------------|-----------------|
|-(7)----------------(7)\-----------||-------------|-----------------|
|-(7)----------------(7)\-----------||-------------|-----------------|
|-(5)----------------(5)\-----------||-------------|-----------------|
|-----------------------------------||-------------|-----------------|


   \1/
|-(5)---(5)---------|----5---------|-------------|
|-------------------|----5---------|-------------|
|-------------------|--------------|-------------|
|--7----(7)---------|-------2-4-0--|-------------|
|--5----(5)--9--9\--|-2------------|-7--7--------|
|------------7--7\--|-0------------|-5--5--4--4--|


                  \1/
|---------------|------------------|--------------------------------||
|---------------|------------------|--------------------------------||
|---------------|------------------|--------------------------------||
|-11--11--9--9--|-7----(7)--9--9\--|-2--2---------------------------||
|--9---9--7--7--|-5----(5)--7--7\--|-0--0---------------------------||
|---------------|------------------|-------0-----2-----4-----0------||
|
| Gtr I
|---------------|------------------|--------------------------------||
|---------------|------------------|-------------------2h3h5-3h5h7--||
|---------------|------------------|-------------2h3h5--------------||
|---------------|------------------|-------2h4h6--------------------||
|---------------|------------------|--------------------------------||
|---------------|------------------|--------------------------------||


|----------------|-----------------|---------------|
|----------------|-----------------|---------------|
|----------------|-----------------|---------------|
|-2--2--------11-|-11--11--9---9---|-7--7--9---9---|
|-0--0---------9-|--9---9--7---7---|-5--5--7---7---|
|-------4--------|-----------------|---------------|
|
|-5------------2-|---------------2-|-------------2-|
|-2-----5-2-5----|--2------5-2-5---|-3-----5-2-5---|
|----------------|-----------------|---------------|
|----------------|-----------------|---------------|
|----------------|-----------------|---------------|
|----------------|-----------------|---------------|


                                     Ending Solo
|--------------|-------------------||-----------------------------|
|--------------|-------------------||------------------17b19======|
|--------------|-------------------||-14--16b21-(16)--------------|
|-7--7--9--9\--|-2--2--2-4-6-/(14)-||-----------------------------|
|-5--5--7--7\--|-0--0--------------||-----------------------------|
|--------------|-------------------||-----------------------------|
|
|--------------|----------------2--||---------------------------2-|
|-2------------|-2-----5-2-5-------||--2-------------5--2-----5---|
|--------------|-------------------||-----------------------------|
|--------------|-------------------||-----------------------------|
|--------------|-------------------||-----------------------------|
|--------------|-------------------||-----------------------------|


|----------------------------------------|
|-(17)r==(17)-(17)-------17--------------|
|------------------16b18----16b18r(16)p==|
|----------------------------------------|
|----------------------------------------|
|----------------------------------------|
|
|----------------------------2-----------|
|---3-----------5---2-----5--------------|
|----------------------------------------|
|----------------------------------------|
|----------------------------------------|
|----------------------------------------|


|-------12b14r(12)p10h12p10S9-10p9S5b7==7r|=5------------5-----------|
|-----------------------------------------|-----8b10-(8)---8-7-5-----|
|-14--------------------------------------|----------------------5---|
|-----------------------------------------|------------------------7-|
|-----------------------------------------|--------------------------|
|-----------------------------------------|--------------------------|
|
|-----------------------------------------|--------------------------|
|--2--------------------------------------|--------------------------|
|-----------------------------------------|--------------------------|
|-----------------------------------------|--------------------------|
|-----------------------------------------|--------------------------|
|-----------------------------------------|--------------------------|


|------------------------|-------------------------------------|
|------------------------|-------------------5-----------------|
|-----4b5==(4)r4-2---2---|-2---4---2-4b6-(4)---4b5r(4)--2------|
|-7----------------4---4-|---4---4------------------------4----|
|------------------------|-------------------------------------|
|------------------------|-------------------------------------|
|
|------------------------|-------------------------------------|
|------------------------|-------------------------------------|
|------------------------|-------------------------------------|
|------------------------|-------------------------------------|
|------------------------|-------------------------------------|
|------------------------|-------------------------------------|


|---------------------------------------|----------------------12b15----||
|----------5-----10----12b14r(12)p10----|-12----10----12----10----------||
|-4---2-/6---/11----11---------------11-|----11----11----11-------------||
|---4-----------------------------------|-------------------------------||
|---------------------------------------|-------------------------------||
|---------------------------------------|-------------------------------||


|--------------------------------------|-------------------------10h12p10--|
|-12b14-12b14---(12)-12b16==(12)r12p10-|-5b7-(5)b7r==10--(10)-12-----------|
|--------------------------------------|-----------------------------------|
|--------------------------------------|-----------------------------------|
|--------------------------------------|-----------------------------------|
|--------------------------------------|-----------------------------------|


|-------------12-12-12-------12-12-12-|-------12-12-12-------12-12-12---------------------------|
|-10----12b14----------12b14----------|-12b14----------12b14----------12b14r(12)p10----12----10-|
|-------------------------------------|---------------------------------------------11----11----|
|-------------------------------------|---------------------------------------------------------|
|-------------------------------------|---------------------------------------------------------|
|-------------------------------------|---------------------------------------------------------|


|-------------------------------------------|---------------------------------------|
|-17b19--17b19--(17)-17b19r17p15------------|---------------------------------------|
|--------------------------------16b18r(16)-|-16b18-16b18-16b18r=(16)-14-14-16b18---|
|-------------------------------------------|---------------------------------------|
|-------------------------------------------|---------------------------------------|
|-------------------------------------------|---------------------------------------|


|------------------------------------|-17b19r(17)--17b19r(17)-17b19r(17)\--||
|-17---------------------------------|-------------------------------------||
|----16b18-14-16b18r(16)-14-16-16-14-|-------------------------------------||
|------------------------------------|-------------------------------------||
|------------------------------------|-------------------------------------||
|------------------------------------|-------------------------------------||


    ~~~                  ~~~~
|--------------------|----------------------------|
|--------------14-17-|-(17)---(17)\--------14-17--|
|-/14----14-16-------|--------------/14-16--------|
|--------------------|----------------------------|
|--------------------|----------------------------|
|--------------------|----------------------------|


|------17-------------------|-----------------------------------------------------|
|-(17)----17----------------|-----------------------------------------------------|
|---------------14----16----|-14b16==(14)r14b16==(14)r14--------------------------|
|------------------16----16-|-----------------------------16p14-------------------|
|---------------------------|-----------------------------------16p14S12h14p12----|
|---------------------------|--------------------------------------------------14-|


|-------------------|---------*|
|-------------14-17-|-(17)----*|
|-14----14-16-------|---------*|
|-------------------|---------*|
|-------------------|---------*|
|-------------------|---------*| 
comments
print report bad tab
2 comments total.
0 reply
ronhoward wrote on June 25 2012, 03:58 pm

These songs are a whole step down, not drop d.

0 reply
ronhoward wrote on June 25 2012, 04:02 pm

Ok nevermind. Before each song it says drop d, but they're tabbed a step down. Some of the tunings are upside down though such as:


gtr 2
d----------------------------------------------------|
g----------------------12-12-10-10-10-12-12-12-(12)--|
c----------------------------------------------------|
f----------------------------------------------------|
a----------------------------------------------------|
d----------------------------------------------------|

d---------------------------------------------------------3-4--3-4-|
g---------------------------------------------------------2-3--2-3-|
c--(4)---2------------------------------------------------3-4--3-4-|
f--(5)---4---2---------2-4---2-4-------2-4---2-4-------------------|
a--(0)-0-0-0---3-4-0-0-----0-----3-0-0-----0-----------------------|
d-------------------------------------------------3-4--0-----------|


Not a big deal, but may confuse some. Decent collection though.

I want to post or [tab]
guest
You may want to rate the tab now too:
select rating
Please do not post tabs as comments. Select "correction" instead!