Oops, an error
Loading. Please wait.

Dr Feelgood Tab

ver2
ver2

Whole song

Interactive

More versions @911Tabs.com
24,667 views 63 this week
5 commentsread comments
1 2 3 4 5
accurate
x 5
Autoscroll
+/-
esc
set tempo
stop
Contributor
Hey! There's an official Ultimate Guitar app which is ideal
for learning songs when you're away from computer. Get the app
WARNING: You are trying to view
                                    content from Ultimate-Guitar.com
                                    in an unauthorized application,
                                    which is prohibited.

                                    Please use an official Ultimate
                                    Guitar Tabs application for iPhone,
                                    iPad or Android to access legitimate
                                    chords, guitar, bass, and drum tabs
                                    from Ultimate-Guitar.com database.

                                    Type "ultimate guitar tabs" in Apple
                                    App Store's or Android Market's
                                    search to find the application.
DR. FEELGOOD                     Mötley Crüe
 

Gtr I (D G C F A D)  
Gtr II (D G C F A D)  


 Intro
  Heavy Rock Q=109
 4/4
  Gtr I
     PM--------------------------
   E.S    +S  S E E E E E E S S
|------||-----------------------|
|------||-----------------------|
|------||-----------------------|
|------||-----------------------|
|------||-----------------------|
|-15S0-||-(0)-0-0-0-0-0-0-0-0-0-|
|
| Gtr II
|    PM--------------------------
|  E.S    +S  S E E E E E E S S
|------||-----------------------|
|------||-----------------------|
|------||-----------------------|
|------||-----------------------|
|------||-----------------------|
|-15S0-||-(0)-0-0-0-0-0-0-0-0-0-|


 ---------------------------------------------|
  +S  S E E E E E E S S   +S  S E E E E E E S S
|-----------------------|------------------------|
|-----------------------|------------------------|
|-----------------------|------------------------|
|-----------------------|------------------------|
|-----------------------|------------------------|
|-(0)-0-0-0-0-0-0-0-0-0-|-(0)-0-0-0-0-0-0-0-0-0--|
|
|---------------------------------------------|
| +S  S E E E E E E S S   +S  S E E E E E E S S
|-----------------------|------------------------|
|-----------------------|------------------------|
|-----------------------|------------------------|
|-----------------------|------------------------|
|-----------------------|------------------------|
|-(0)-0-0-0-0-0-0-0-0-0-|-(0)-0-0-0-0-0-0-0-0-0--|


   PM-------------------------------------------------------------------
  +S  S E E E E E E S   S      +S     S E    E   E    E   E E    S   S
|--------------------------|-------------------------------------------|
|--------------------------|-------------------------------------------|
|--------------------------|-------------------------------------------|
|--------------------------|-------------------------------------------|
|--------------------------|-------------------------------------------|
|-(0)-0-0-0-0-0-0-0-0---0--|---(0)----0-0----0---0----0---0-0----0---0-|
|
|                               \0.5_________\1_______/
|  PM---------------|
| +S  S E E E E E E S   S      +Q           +Q       +Q.        +E
|--------------------------|-------------------------------------------|
|--------------------------|-------------------------------------------|
|--------------------------|-------------------------------------------|
|--------------------------|-------------------------------------------|
|---------------------<12>-|-(<12>)-------(<12>)---(<12>)-----(<12>)---|
|-(0)-0-0-0-0-0-0-0-0------|-------------------------------------------|


 ----------------------------------------------------------|
    +S     S    E     E    E      E        E      E    S   S
|------------------------------------------------------------|
|------------------------------------------------------------|
|------------------------------------------------------------|
|------------------------------------------------------------|
|------------------------------------------------------------|
|---(0)----0----0-----0----0------0--------0------0----0---0-|
|
|    \0.5_______/0.5_______\1_____\1.5_____/           \2/
|   +E         +Q         +E     +E       +E     +E    E
|------------------------------------------------------------|
|------------------------------------------------------------|
|-----------------------------------------------------<7>----|
|------------------------------------------------------------|
|-(<12>)-----(<12>)-----(<12>)-(<12>)---(<12>)-(<12>)--------|
|------------------------------------------------------------|


    PM---------------------------------------------------------------------------------------------------
   +S   S   E     E     E     E     E     E   S  S     +S   S   E     E     E     E     E     E   S  S
|---------------------------------------------------|---------------------------------------------------|
|---------------------------------------------------|---------------------------------------------------|
|---------------------------------------------------|---------------------------------------------------|
|---------------------------------------------------|---------------------------------------------------|
|---------------------------------------------------|---------------------------------------------------|
|--(0)--0---0-----0-----0-----0-----0-----0---0--0--|--(0)--0---0-----0-----0-----0-----0-----0---0--0--|
|
|   \2/     \2/   \2/   \2/   \2/   \2/   \2/                   \2/   \2/   \2/   \2/   \2/   \2/
|  +E      +E    +E    +E    +E    +E    +E   S  S     +E      +E    +E    +E    +E    +E    +E   S  S
|---------------------------------------------------|---------------------------------------------------|
|---------------------------------------------------|---------------------------------------------------|
|-(<7>)---(<7>)-(<7>)-(<7>)-(<7>)-(<7>)-(<7>)---<5>-|-(<5>)---(<5>)-(<5>)-(<5>)-(<5>)-(<5>)-(<5>)---<7>-|
|-----------------------------------------------<5>-|-(<5>)---(<5>)-(<5>)-(<5>)-(<5>)-(<5>)-(<5>)-------|
|---------------------------------------------------|---------------------------------------------------|
|---------------------------------------------------|---------------------------------------------------|


 -----------------------------------------------|
   +S   S   E     E     E     E     E     E   S   S
|----------------------------------------------------|
|----------------------------------------------------|
|----------------------------------------------------|
|----------------------------------------------------|
|----------------------------------------------------|
|--(0)--0---0-----0-----0-----0-----0-----0---0---0--|
|
|           \2/   \2/   \2/   \2/   \2/   \2/
|  +E      +E    +E    +E    +E    +E    +E   S   S
|----------------------------------------------------|
|----------------------------------------------------|
|-(<7>)---(<7>)-(<7>)-(<7>)-(<7>)-(<7>)-(<7>)---<12>-|
|-----------------------------------------------<12>-|
|----------------------------------------------------|
|----------------------------------------------------|


     PM-----------------------------------------------------
    +S   S    E      E      E      E      E      E   S  S
|----------------------------------------------------------|
|----------------------------------------------------------|
|----------------------------------------------------------|
|----------------------------------------------------------|
|----------------------------------------------------------|
|---(0)--0----0------0------0------0------0------0---0--0--|
|
|             \2/    \2/    \2/    \2/    \2/    \2/
|   +E       +E     +E     +E     +E     +E     +E   S  S
|----------------------------------------------------------|
|----------------------------------------------------------|
|-(<12>)---(<12>)-(<12>)-(<12>)-(<12>)-(<12>)-(<12>)---<7>-|
|-(<12>)---(<12>)-(<12>)-(<12>)-(<12>)-(<12>)-(<12>)---<7>-|
|----------------------------------------------------------|
|----------------------------------------------------------|


 ---------------------------------------------------------------------------------------------------|
   +S   S   E     E     E     E     E     E   S  S     +S   S   E     E     E     E     E     E   S  S
|---------------------------------------------------|---------------------------------------------------|
|---------------------------------------------------|---------------------------------------------------|
|---------------------------------------------------|---------------------------------------------------|
|---------------------------------------------------|---------------------------------------------------|
|---------------------------------------------------|---------------------------------------------------|
|--(0)--0---0-----0-----0-----0-----0-----0---0--0--|--(0)--0---0-----0-----0-----0-----0-----0---0--0--|
|
|           \2/   \2/   \2/   \2/   \2/   \2/                   \2/   \2/   \2/   \2/   \2/   \2/
|  +E      +E    +E    +E    +E    +E    +E   S  S     +E      +E    +E    +E    +E    +E    +E   S  S
|---------------------------------------------------|---------------------------------------------------|
|---------------------------------------------------|---------------------------------------------------|
|-(<7>)---(<7>)-(<7>)-(<7>)-(<7>)-(<7>)-(<7>)---<5>-|-(<5>)---(<5>)-(<5>)-(<5>)-(<5>)-(<5>)-(<5>)---<7>-|
|-(<7>)---(<7>)-(<7>)-(<7>)-(<7>)-(<7>)-(<7>)---<5>-|-(<5>)---(<5>)-(<5>)-(<5>)-(<5>)-(<5>)-(<5>)---<7>-|
|---------------------------------------------------|---------------------------------------------------|
|---------------------------------------------------|---------------------------------------------------|


    PM------------------------------------------------
   +S   S   E     E     E     E     E     E   S   S
|----------------------------------------------------|
|----------------------------------------------------|
|----------------------------------------------------|
|----------------------------------------------------|
|----------------------------------------------------|
|--(0)--0---0-----0-----0-----0-----0-----0---0---0--|
|
|           \2/   \2/   \2/   \2/   \2/   \2/
|  +E      +E    +E    +E    +E    +E    +E   S   S
|----------------------------------------------------|
|----------------------------------------------------|
|-(<7>)---(<7>)-(<7>)-(<7>)-(<7>)-(<7>)-(<7>)---<12>-|
|-(<7>)---(<7>)-(<7>)-(<7>)-(<7>)-(<7>)-(<7>)---<12>-|
|----------------------------------------------------|
|----------------------------------------------------|


 ------------------------|                       PM--------------|        ~~~
    +S   S    E      E      E    Q    E. S      +S   S S S S S S S E S S +E. S
|------------------------------------------||----------------------------------|
|------------------------------------------||o---------------------3---2-(2)---|
|------------------------------------------||----------------------2---2-(2)---|
|------------------------------------------||----------------------------------|
|--------------------------------x\---x\---||o---------------------------------|
|---(0)--0----0------0------0----x\---x\-0-||---(0)--0-2-2-3-3-4-5-----------0-|
|
|             \2/    \2/    \2/       \7
|   +E       +E     +E     +E    Q    Q         +W
|------------------------------------------||----------------------------------|
|------------------------------------------||o---------------------------------|
|-(<12>)---(<12>)-(<12>)-(<12>)-<3>--<3>---||--(<3>)---------------------------|
|-(<12>)---(<12>)-(<12>)-(<12>)------------||----------------------------------|
|------------------------------------------||o---------------------------------|
|------------------------------------------||----------------------------------|


   PM-------------|        ~~~PM------------------|        ~~~PM
  +S  S S S S S S S E S S +E. S   +S  S S S S S S S E S S +E. S
|-------------------------------|-------------------------------|
|-------------------8---8-(8)---|-------------------3---2-(2)---|
|-------------------7---7-(7)---|-------------------2---2-(2)---|
|-------------------6---6-(6)---|-------------------------------|
|-------------------7---7-(7)---|-------------------------------|
|-(0)-0-2-2-3-3-4-5-----------0-|-(0)-0-2-2-3-3-4-5-----------0-|


  1.                               2.
   PM-------------|        ~~~PM--------------------|        ~~~
  +S  S S S S S S S E S S +E. S     +S  S S S S S S S E S S +E. S
|--------------------------------||-------------------------------||
|-------------------8---8-(8)---o||-------------------8---8-(8)---||
|-------------------7---7-(7)----||-------------------7---7-(7)-2-||
|-------------------6---6-(6)----||-------------------6---6-(6)-2-||
|-------------------7---7-(7)---o||-------------------7---7-(7)-0-||
|-(0)-0-2-2-3-3-4-5-----------0--||-(0)-0-2-2-3-3-4-5-------------||


   1st & 2nd Verses
    +E  E S E. Q  E. S   +E  E S E. Q  E. S
||---------------------|--------------------|
||o--------------------|--------------------|
||--(2)---2-2--------2-|-(2)--------------2-|
||--(2)---2-2--------2-|-(2)---2-2--------2-|
||o-(0)---0-0--------0-|-(0)---2-2--------0-|
||------3--------------|-----3-0-0----------|


  +E  E S E. Q  E. S   +E  E S E. Q  E. S
|--------------------|--------------------|
|--------------------|--------------------|
|-(2)---2-2--------2-|-(2)--------------2-|
|-(2)---2-2--------2-|-(2)---2-2--------2-|
|-(0)---0-0--------0-|-(0)---2-2--------0-|
|-----3--------------|-----3-0-0----------|


             PM----|                PM----|
  +E  E S E. E E E S S   +E  E S E. E E E S S
|----------------------|----------------------|
|----------------------|----------------------|
|-(2)---2-2----------2-|-(2)----------------2-|
|-(2)---2-2----------2-|-(2)---2-2----------2-|
|-(0)---0-0--0-0-0-0-0-|-(0)---2-2----------0-|
|-----3----------------|-----3-0-0--0-0-0-0---|


             PM----|                PM------|
  +E  E S E. E E E S S   +E  E S E. E E E S S
|----------------------|-----------------------||
|----------------------|-----------------------||
|-(2)---2-2----------2-|-(2)-------------------||
|-(2)---2-2----------2-|-(2)---2-2-------------||
|-(0)---0-0--0-0-0-0-0-|-(0)---2-2-------------||
|-----3----------------|-----3-0-0--0-0-0-0-0--||


 Chorus
   PM-------------|        ~~~PM------------------|        ~~~
  +S  S S S S S S S E S S +E. S   +S  S S S S S S S E S S +E. S
|-------------------------------|-------------------------------|
|-------------------3---2-(2)---|-------------------8---8-(8)---|
|-------------------2---2-(2)---|-------------------7---7-(7)---|
|-------------------------------|-------------------6---6-(6)---|
|-------------------------------|-------------------7---7-(7)---|
|-(0)-0-2-2-3-3-4-5-----------0-|-(0)-0-2-2-3-3-4-5-----------0-|


                                 1.
   PM-------------|        ~~~PM------------------|        ~~~
  +S  S S S S S S S E S S +E. S   +S  S S S S S S S E S S +E. S
|-------------------------------|--------------------------------||
|-------------------3---2-(2)---|-------------------8---8-(8)---o||
|-------------------2---2-(2)---|-------------------7---7-(7)-2--||
|-------------------------------|-------------------6---6-(6)-2--||
|-------------------------------|-------------------7---7-(7)-0-o||
|-(0)-0-2-2-3-3-4-5-----------0-|-(0)-0-2-2-3-3-4-5--------------||


 2.
   PM-------------|        ~~~
   S  S S S S S S S E S S +E  S S
|---------------------------------|
|-------------------8---8-(8)-----|
|-------------------7---7-(7)-----|
|-------------------6---6-(6)---5-|
|-------------------7---7-(7)---5-|
|-(0)-0-2-2-3-3-4-5-------------3-|


 Bridge
                               PM----------|
  +Q   +E. S +Q   +E. S   +E   E E E E E E S S
|-----------------------|----------------------|
|-----------------------|----------------------|
|---------------------9-|-(9)\-----------------|
|-(5)--(5)-7-(7)--(7)-9-|-(9)\---------------5-|
|-(5)--(5)-7-(7)--(7)-7-|-(7)\---------------5-|
|-(3)--(3)-5-(5)--(5)---|------0-0-0-0-0-0-0-3-|


                               PM----------|
  +Q   +E. S +Q   +E. S   +E   E E E E E E S S
|-----------------------|-----------------------|
|-----------------------|-----------------------|
|---------------------9-|-(9)\------------------|
|-(5)--(5)-7-(7)--(7)-9-|-(9)\---------------5--|
|-(5)--(5)-7-(7)--(7)-7-|-(7)\---------------5--|
|-(3)--(3)-5-(5)--(5)---|------0-0-0-0-0-0-0-3--|


                               PM----------|
  +Q   +E. S +Q   +E. S   +E   E E E E E E S S   +Q   +E. S +H       W
|-----------------------|----------------------|-------------------|------|
|-----------------------|----------------------|-------------------|------|
|---------------------9-|-(9)\-----------------|-------------------|------|
|-(5)--(5)-7-(7)--(7)-9-|-(9)\---------------5-|-(5)--(5)-7-(7)----|-9----|
|-(5)--(5)-7-(7)--(7)-7-|-(7)\---------------5-|-(5)--(5)-7-(7)----|-9----|
|-(3)--(3)-5-(5)--(5)---|------0-0-0-0-0-0-0-3-|-(3)--(3)-5-(5)----|-7----|


           PM|     PM-----
  +H     E S S E.  S
|-----------------------||
|-----------------------||
|-----------------------||
|-(9)----9-x-x-9\-------||
|-(9)----9-x-x-9\-------||
|-(7)----7-x-x-7\--0----||
|
| Gtr II
|  H     Q     E.  S
|-----------------12----||
|-----------------15b17-||
|-----------------------||
|-----------------------||
|-----------------------||
|-----------------------||


 Interlude
 --------------------------|              ~~~           PM
   +S  S S S  S       S  S S   E    S  S +E.            S
|------------------------------------------------------------|
|------------------------------3-------2-(2)-----------------|
|------------------------------2-------2-(2)-----------------|
|------------------------------------------------------------|
|------------------------------------------------------------|
|--(0)-0-2-2--3-------3--4-5----------------------------0----|
|
|                                         |-------6--------|
|  +Q         S      +E.      +E    s  s  S  S  S  S  S    S
|-(12)-------12-----(12)-----------12------------------------|
|-(15)-------15b17==(15)-----(15)r----15-14----12------------|
|-------------------------------------------------15-12h==14-|
|------------------------------------------------------------|
|------------------------------------------------------------|
|------------------------------------------------------------|


   PM-----------------------------------------------|            ~~~ PM----
  +S     S     S     S     S     S               S  S   E   S S +E.  S
|-------------------------------------------------------------------------|
|-------------------------------------------------------8-----8-(8)-------|
|-------------------------------------------------------7-----7-(7)-------|
|-------------------------------------------------------6-----6-(6)-------|
|-------------------------------------------------------7-----7-(7)-------|
|-(0)----0-----2-----2-----3-----3---------------4--5----------------0----|
|
|                                                ~~~~~~~~~~~
|  T  T  T  T  T  T  T  T  T  T  T  T   a       +E     +E   E    E.  S
|-------------------------------------------------------------------15b17-|
|-------------------------------------------------------------------------|
|-12h14p12----------------------------------------------------------------|
|----------14-12h14p12----------------------------------------------------|
|----------------------14-12s10-------[12]b14==(12)---(12)r---------------|
|-------------------------------12p10-------------------------------------|


 ------------------|                    ~~~~~~         PM
   +S  S S S S S S S E        S     S  +E.             S
|----------------------------------------------------------|
|--------------------3--------------2--(2)-----------------|
|--------------------2--------------2--(2)-----------------|
|----------------------------------------------------------|
|----------------------------------------------------------|
|--(0)-0-2-2-3-3-4-5-----------------------------------0---|
|
|  +Q.           E   S    +S  S    +S   S    +S  S    +S
|-(15)-----------------------------------------------------|
|----------------------------------------------------------|
|--------------------2pb4r(2)-2pb4r(2)--2pb4r(2)-2pb4r(2)--|
|----------------------------------------------------------|
|----------------------------------------------------------|
|----------------------------------------------------------|


   PM---------------------------------------------------|          ~~~
  +S        S       S       S     S        S      S     S E  S  S +E. S
|-----------------------------------------------------------------------||
|---------------------------------------------------------8-----8-(8)---||
|---------------------------------------------------------7-----7-(7)-2-||
|---------------------------------------------------------6-----6-(6)-2-||
|---------------------------------------------------------7-----7-(7)-0-||
|-(0)-------0-------2-------2-----3--------3------4-----5---------------||
|
|                                                                  \7
|  |-------------6-------------|  |--------3---------|
|  S    +S    S    +S  S      +S  S    +S    E      +E    E +E    +E. S
|-----------------------------------------------------------------------||
|-----------------------------------------------------------------------||
|--2pb4r(2)---2pb4r(2)-2pb4r==(2)-2pb4r(2)---2pb4r==(2)---0-(0)---(0)---||
|-----------------------------------------------------------------------||
|-----------------------------------------------------------------------||
|-----------------------------------------------------------------------||


 3rd Verse
  +E  E S E. Q  E. S   +E  E S E. Q  E. S
|--------------------|--------------------|
|--------------------|--------------------|
|-(2)---2-2--------2-|-(2)--------------2-|
|-(2)---2-2--------2-|-(2)---2-2--------2-|
|-(0)---0-0--------0-|-(0)---2-2--------0-|
|-----3--------------|-----3-0-0----------|
|
|  W                    W
|--------------------|--------------------|
|--------------------|--------------------|
|--------------------|--------------------|
|--------------------|--------------------|
|--------------------|--------------------|
|--------------------|--------------------|


                                                              PM---------|
  +E  E S E. Q  E. S   +E  E S E. Q      E. S    +E  E S E.   E    E   E S S
|--------------------|------------------------|------------------------------|
|--------------------|------------------------|------------------------------|
|-(2)---2-2--------2-|-(2)------------------2-|--(2)---2-2-----------------2-|
|-(2)---2-2--------2-|-(2)---2-2------------2-|--(2)---2-2-----------------2-|
|-(0)---0-0--------0-|-(0)---2-2------------0-|--(0)---0-0----0----0---0-0-0-|
|-----3--------------|-----3-0-0--------------|------3-----------------------|
|
|                                        ~~~~~~~~~~~~~~~~~~~~~~~~
|  W                    H         S  E.  Q       +H          +E   +E   Q
|--------------------|------------------------|------------------------------|
|--------------------|--------------13--------|------------------------------|
|--------------------|------------------14----|-(14)--------(14)-(14)\-------|
|--------------------|------------------------|------------------------------|
|--------------------|------------------------|------------------------------|
|--------------------|------------------------|------------------------------|


             PM------------|                       PM|   PM
  +E  E S E. E  E     E    S  S    +E    E   S E.  E E E S S
|-------------------------------|----------------------------|
|-------------------------------|----------------------------|
|-(2)-------------------------2-|--(2)-------2-2-------2---2-|
|-(2)---2-2-------------------2-|--(2)-------2-2-------2---2-|
|-(0)---2-2--0----------------0-|--(0)-------0-0---0-0-0-0-0-|
|-----3-0-0--0--0-----0----0----|--------3-------------------|
|
|                                                  TP
|  H         E  S  S  S  E    S    +E   +E   Q     H
|--------------20p17-20-20---17-|-(17)-(17)\------17---------|
|--------------19p17-19-19---17-|-(17)-(17)\-----------------|
|-------------------------------|----------------------------|
|-------------------------------|----------------------------|
|-------------------------------|----------------------------|
|-------------------------------|----------------------------|


               PM--------------------------|
   +E  E  S E. E       E       E       S   S
|-----------------------------------------------||
|-----------------------------------------------||
|--(2)------------------------------------------||
|--(2)----2-2-----------------------------------||
|--(0)----2-2-----------------------------------||
|------3--0-0--0-------0-------0-------0---0----||
|
|   TP
|              |------6------| |------6------|
|  +Q     Q    S  S  S S  S  S S  S  S S S   S
|-(17)---17S===8h10h12--------------------------||
|----------------------8h10h12------------------||
|------------------------------9h11h12-9-----9--||
|--------------------------------------------9--||
|-----------------------------------------------||
|-----------------------------------------------||


 Chorus
   PM--------------|        ~~~PM------------------|        ~~~
  +S   S S S S S S S E S S +E. S   +S  S S S S S S S E S S +E. S
|--------------------------------|-------------------------------|
|--------------------3---2-(2)---|-------------------8---8-(8)---|
|--------------------2---2-(2)---|-------------------7---7-(7)---|
|--------------------------------|-------------------6---6-(6)---|
|--------------------------------|-------------------7---7-(7)---|
|-(0)--0-2-2-3-3-4-5-----------0-|-(0)-0-2-2-3-3-4-5-----------0-|
|
| +E   E Q   H                      W
|--------------------------------|-------------------------------|
|--------------------------------|-------------------------------|
|-(9)\---------------------------|-------------------------------|
|-(9)\---------------------------|-------------------------------|
|--------------------------------|-------------------------------|
|--------------------------------|-------------------------------|


   PM-------------|        ~~~PM------------------|        ~~~
  +S  S S S S S S S E S S +E. S   +S  S S S S S S S E S S +E  S S
|-------------------------------|---------------------------------||
|-------------------3---2-(2)---|-------------------8---8-(8)-----||
|-------------------2---2-(2)---|-------------------7---7-(7)-----||
|-------------------------------|-------------------6---6-(6)---5-||
|-------------------------------|-------------------7---7-(7)---5-||
|-(0)-0-2-2-3-3-4-5-----------0-|-(0)-0-2-2-3-3-4-5-------------3-||


 Bridge
                               PM----------|
  +Q   +E. S +Q   +E. S   +E   E E E E E E S S
|-----------------------|----------------------|
|-----------------------|----------------------|
|---------------------9-|-(9)\-----------------|
|-(5)--(5)-7-(7)--(7)-9-|-(9)\---------------5-|
|-(5)--(5)-7-(7)--(7)-7-|-(7)\---------------5-|
|-(3)--(3)-5-(5)--(5)---|------0-0-0-0-0-0-0-3-|


                               PM----------|
  +Q   +E. S +Q   +E. S   +E   E E E E E E S S
|-----------------------|-----------------------|
|-----------------------|-----------------------|
|---------------------9-|-(9)\------------------|
|-(5)--(5)-7-(7)--(7)-9-|-(9)\---------------5--|
|-(5)--(5)-7-(7)--(7)-7-|-(7)\---------------5--|
|-(3)--(3)-5-(5)--(5)---|------0-0-0-0-0-0-0-3--|


                               PM----------|
  +Q   +E. S +Q   +E. S   +E   E E E E E E S S
|-----------------------|----------------------|
|-----------------------|----------------------|
|---------------------9-|-(9)\-----------------|
|-(5)--(5)-7-(7)--(7)-9-|-(9)\---------------5-|
|-(5)--(5)-7-(7)--(7)-7-|-(7)\---------------5-|
|-(3)--(3)-5-(5)--(5)---|------0-0-0-0-0-0-0-3-|


  +Q   +E. S +H       W          +H.      E. S
|-------------------|----------|---------------||
|-------------------|----------|---------------||
|-------------------|----------|---------------||
|-(5)--(5)-7-(7)----|-9--------|-(9)------9\---||
|-(5)--(5)-7-(7)----|-9--------|-(9)------9\---||
|-(3)--(3)-5-(5)----|-7--------|-(7)------7\-0-||


   PM--------------------------------------------
  +S  S E E E E E E S S   +S  S E E E E E E S S
|-----------------------|-----------------------|
|-----------------------|-----------------------|
|-----------------------|-----------------------|
|-----------------------|-----------------------|
|-----------------------|-----------------------|
|-(0)-0-0-0-0-0-0-0-0-0-|-(0)-0-0-0-0-0-0-0-0-0-|
|
| Gtr II
|  \7
|  W                      +W
|-----------------------|-----------------------|
|-----------------------|-----------------------|
|-----------------------|-----------------------|
|-----------------------|-----------------------|
|--x--------------------|-(x)-------------------|
|-----------------------|-----------------------|


 ------------------------------------------------|
  +S  S E E E E E E S S   +S   S E E E E E E  S  S
|-----------------------|----------------------------|
|-----------------------|----------------------------|
|-----------------------|----------------------------|
|-----------------------|----------------------------|
|-----------------------|----------------------------|
|-(0)-0-0-0-0-0-0-0-0-0-|-(0)--0-0-0-0-0-0-0--0--0---|
|
| +W                      +H..                E
|-----------------------|----------------------------|
|-----------------------|----------------------------|
|-----------------------|--------------------<7>-----|
|-----------------------|----------------------------|
|-(x)-------------------|-(x)------------------------|
|-----------------------|----------------------------|


    PM---------------------------------------------------------------------------------------------------
   +S   S   E     E     E     E     E     E   S  S     +S   S   E     E     E     E     E     E   S  S
|---------------------------------------------------|---------------------------------------------------|
|---------------------------------------------------|---------------------------------------------------|
|---------------------------------------------------|---------------------------------------------------|
|---------------------------------------------------|---------------------------------------------------|
|---------------------------------------------------|---------------------------------------------------|
|--(0)--0---0-----0-----0-----0-----0-----0---0--0--|--(0)--0---0-----0-----0-----0-----0-----0---0--0--|
|
|   \2/     \2/   \2/   \2/   \2/   \2/   \2/                   \2/   \2/   \2/   \2/   \2/   \2/
|  +E      +E    +E    +E    +E    +E    +E   S  S     +E      +E    +E    +E    +E    +E    +E   S  S
|---------------------------------------------------|---------------------------------------------------|
|---------------------------------------------------|---------------------------------------------------|
|-(<7>)---(<7>)-(<7>)-(<7>)-(<7>)-(<7>)-(<7>)---<5>-|-(<5>)---(<5>)-(<5>)-(<5>)-(<5>)-(<5>)-(<5>)---<7>-|
|-----------------------------------------------<5>-|-(<5>)---(<5>)-(<5>)-(<5>)-(<5>)-(<5>)-(<5>)---<7>-|
|---------------------------------------------------|---------------------------------------------------|
|---------------------------------------------------|---------------------------------------------------|


 ------------------------------------------------------------------------------------|
   +S   S   E     E     E     E     E     E   S   S      +S   S    E      E      E      E   E   E.     S
|----------------------------------------------------|-----------------------------------------------------||
|----------------------------------------------------|-----------------------------------------------------||
|----------------------------------------------------|-----------------------------------------------------||
|----------------------------------------------------|-------------------------------------------------5---||
|----------------------------------------------------|-------------------------------------------------5---||
|--(0)--0---0-----0-----0-----0-----0-----0---0---0--|---(0)--0----0------0------0------0--------------3---||
|
|           \2/   \2/   \2/   \2/   \2/   \2/                      \2/    \2/    \2/
|  +E      +E    +E    +E    +E    +E    +E   S   S      +E       +E     +E     +E     +Q       E   S  S
|----------------------------------------------------|-----------------------------------------------------||
|----------------------------------------------------|----------------------------------------<12>-15p12---||
|-(<7>)---(<7>)-(<7>)-(<7>)-(<7>)-(<7>)-(<7>)---<12>-|-(<12>)---(<12>)-(<12>)-(<12>)-(<12>)---<12>---------||
|-(<7>)---(<7>)-(<7>)-(<7>)-(<7>)-(<7>)-(<7>)---<12>-|-(<12>)---(<12>)-(<12>)-(<12>)-(<12>)----------------||
|----------------------------------------------------|-----------------------------------------------------||
|----------------------------------------------------|-----------------------------------------------------||


 Guitar Solo
          +Q    +E.        S           +Q                 +E.             S
|------------------------------------------------------------------------------|
|------------------------------------------------------------------------------|
|-------------------------------------------------------------------------9----|
|---------(5)---(5)--------7-----------(7)----------------(7)-------------9----|
|---------(5)---(5)--------7-----------(7)----------------(7)-------------7----|
|---------(3)---(3)--------5-----------(5)----------------(5)------------------|
|
|                     |---3---|         |-------6-------|  |--------6--------|
|  a      +Q    +E    S  S    S  a     +S   S  S  S  S  S  S   S  S  S  S    S
|-12-----(12)--(12)--12-12---12-12----(12)-12-12-12-12-12-12--12-12-12-12---12-|
|-15b17==(15)--(15)r------------15b17-(15)-------------------------------------|
|------------------------------------------------------------------------------|
|------------------------------------------------------------------------------|
|------------------------------------------------------------------------------|
|------------------------------------------------------------------------------|


              PM---------------------------------------------------|
  +E          E        E        E        E        E        E        S    S
|------------------------------------------------------------------------------|
|------------------------------------------------------------------------------|
|-(9)\-------------------------------------------------------------------------|
|-(9)\-------------------------------------------------------------------5-----|
|-(7)\-------------------------------------------------------------------5-----|
|-------------0--------0--------0--------0--------0--------0--------0----3-----|
|
|  |-------6--------|  |------6-------|  |------6-------|  |-------6--------|
|  S    S  S  S  S  S  S  S  S  S  S  S  S  S  S  S  S  S  S  S  S  S  S    S
|------------12-14-15----------12-14-15----------12-14-15----------12-14---15--|
|-12---14-15----------12-14-15----------12-14-15----------12-14-15-------------|
|------------------------------------------------------------------------------|
|------------------------------------------------------------------------------|
|------------------------------------------------------------------------------|
|------------------------------------------------------------------------------|


  +Q                 +E.             S    +Q                 +E.   S
|--------------------------------------------------------------------|
|--------------------------------------------------------------------|
|------------------------------------------------------------------9-|
|-(5)----------------(5)-------------7----(7)----------------(7)---9-|
|-(5)----------------(5)-------------7----(7)----------------(7)---7-|
|-(3)----------------(3)-------------5----(5)----------------(5)-----|
|
|  |-------6-------|  |--------6--------|  |-------6-------|
|  S   S  S  S  S  S  S   S  S  S  S    S  S   S  S  S  S  S  E  S S
|-----------12-14-15-----------12-14---15-----------12-14-15--x\-0-x-|
|-12--14-15----------12--14-15------------12--14-15------------------|
|--------------------------------------------------------------------|
|--------------------------------------------------------------------|
|--------------------------------------------------------------------|
|--------------------------------------------------------------------|


         PM-----------------------|
  +E     E  E      E   E  E   E   S   S
|--------------------------------------------|
|--------------------------------------------|
|-(9)\---------------------------------------|
|-(9)\--------------------------------5------|
|-(7)\--------------------------------5------|
|--------0--0------0---0--0---0---0---3------|
|
| +S   S E  S   E.    +Q     +E   S   S
|-(x)/-0-x/-0/-15----(15)---(15)\---[15]b17==|
|--------------------------------------------|
|--------------------------------------------|
|--------------------------------------------|
|--------------------------------------------|
|--------------------------------------------|


    +Q         +E.     S +Q        +E.       S
|------------------------------------------------|
|------------------------------------------------|
|--------------------------------------------9---|
|---(5)--------(5)-----7-(7)-------(7)-------9---|
|---(5)--------(5)-----7-(7)-------(7)-------7---|
|---(3)--------(3)-----5-(5)-------(5)-----------|
|
|                                        |--3--|
|   +E.   S    +S  S S S  S  S S S  S  S S S   S
|-([15])r----------------------------------------|
|------------------------------------------------|
|---------2b4==(2)-2-2-2--2--2-2-2--2--2-2-2---2-|
|------------------------------------------------|
|------------------------------------------------|
|------------------------------------------------|


         PM------------------------------|
  +E     E   E     E       E      E  E   S S
|---------------------------------------------|
|---------------------------------------------|
|-(9)\----------------------------------------|
|-(9)\-------------------------------------5--|
|-(7)\-------------------------------------5--|
|--------0---0-----0-------0------0--0---0-3--|
|
|                                    \2/
|            |-3-|
|  S   S S S S S S T T T T T T E.   +Q
|---------------------------------------------|
|---------------------------------------------|
|--2---2-2r2-2p0---0--------------------------|
|----------------2---2p0h2p0h2p0----(0)-------|
|---------------------------------------------|
|---------------------------------------------|


  +Q            +E.         S   +H
|-----------------------------------------------------|
|-----------------------------------------------------|
|---------------------------2---(2)-------------------|
|-(5)-----------(5)---------2---(2)-------------------|
|-(5)-----------(5)---------0---(0)-------------------|
|-(3)-----------(3)-----------------------------------|
|
|  |----6-----|  |-----6------|  |----6-----| |-3-|
|  S  S S S S S  S  S S S S   S  S  S S S S S S S S E
|---------------------------------------------------6-|
|---------------------------------------5-5-5-8-8-8---|
|--------------------------------6--6-6---------------|
|----------------5--5-5-7-7---7-----------------------|
|--5--5-5-7-7-7---------------------------------------|
|-----------------------------------------------------|


  W
|-----------------------------------------------------------|
|-----------------------------------------------------------|
|-4---------------------------------------------------------|
|-4---------------------------------------------------------|
|-2---------------------------------------------------------|
|-----------------------------------------------------------|
|
|      T      T      T      T      T      T      T      T
| |-----6-----| |-----6-----| |-----6-----| |-----6-----|
| S S  S S S  S S S  S S S  S S S  S S S  S S S  S S S  S
|-----------------------------------------------------------|
|-0h7h12p0h9h12p0h7h12p0h9h12p0h7h12p0h5h12p0h7h12p0h5h12p==|
|-----------------------------------------------------------|
|-----------------------------------------------------------|
|-----------------------------------------------------------|
|-----------------------------------------------------------|


  +H.                                        +E.         S
|-------------------------------------------------------------|
|-------------------------------------------------------------|
|-(4)----------------------------------------(4)--------------|
|-(4)----------------------------------------(4)--------------|
|-(2)----------------------------------------(2)--------------|
|--------------------------------------------------------0----|
|
|       T      T      T      T      T      T       T        T
|  |-----6-----| |-----6-----| |-----6-----|  |------6------|
|  S S  S S S  S S S  S S S  S S S  S S S  S  S S  S S S    S
|-------------------------------------------------------------|
|--0h4h12p0h5h12p0h4h12p0h2h12p0h4h12p0h2h12p=0h4h12p0h4h==12-|
|-------------------------------------------------------------|
|-------------------------------------------------------------|
|-------------------------------------------------------------|
|-------------------------------------------------------------|


   PM-------------|         ~~~~PM
  +S  S S S S S S S E S S  +E.  S
|----------------------------------|
|-------------------3---2--(2)-----|
|-------------------2---2--(2)-----|
|----------------------------------|
|----------------------------------|
|-(0)-0-2-2-3-3-4-5-------------0--|
|
|                           \2
|  H.                      +Q
|----------------------------------|
|-<5>---------------------(<5>)----|
|----------------------------------|
|----------------------------------|
|----------------------------------|
|----------------------------------|


    PM--------------|        ~~~PM-
   +S   S S S S S S S E S S +E. S
|---------------------------------|
|---------------------8---8-(8)---|
|---------------------7---7-(7)---|
|---------------------6---6-(6)---|
|---------------------7---7-(7)---|
|--(0)--0-2-2-3-3-4-5-----------0-|
|
|   \7
|  +W
|---------------------------------|
|-(<5>)---------------------------|
|---------------------------------|
|---------------------------------|
|---------------------------------|
|---------------------------------|


 -----------------|        ~~~PM------------------|        ~~~PM
  +S  S S S S S S S E S S +E. S   +S  S S S S S S S E S S +E. S
|-------------------------------|--------------------------------|
|-------------------3---2-(2)---|-------------------8---8-(8)----|
|-------------------2---2-(2)---|-------------------7---7-(7)----|
|-------------------------------|-------------------6---6-(6)----|
|-------------------------------|-------------------7---7-(7)----|
|-(0)-0-2-2-3-3-4-5-----------0-|-(0)-0-2-2-3-3-4-5-----------0--|
|
|  W                               W
|-------------------------------|--------------------------------|
|-------------------------------|--------------------------------|
|-------------------------------|--------------------------------|
|-------------------------------|--------------------------------|
|-------------------------------|--------------------------------|
|-------------------------------|--------------------------------|


   PM------------|        ~~~PM------------------|         ~~~   PM
  +S S S S S S S S E S S +E. S   +S  S S S S S S S E  S S +E.    S
|------------------------------|-----------------------------------|
|------------------3---2-(2)---|-------------------8----8-(8)------|
|------------------2---2-(2)---|-------------------7----7-(7)------|
|------------------------------|-------------------6----6-(6)------|
|------------------------------|-------------------7----7-(7)------|
|-(0)0-2-2-3-3-4-5-----------0-|-(0)-0-2-2-3-3-4-5---------------0-|
|
|  W                              H                E  E    E   E
|-12s==========================|=19-----------------------10-------|
|------------------------------|---------------------12-------12---|
|------------------------------|-----------------------------------|
|------------------------------|-----------------------------------|
|------------------------------|-----------------------------------|
|------------------------------|-----------------------------------|


   PM------------------|            ~~~   PM-
   S S S    S S S    S S  E S    S +E.    S
|-------------------------------------------|
|-------------------------3------2-(2)------|
|-------------------------2------2-(2)------|
|-------------------------------------------|
|-------------------------------------------|
|--0-0-2----2-3-3----4-5------------------0-|
|
|  |-------3-------|      |------3------|
|  Q      Q        Q      Q    Q        Q
|-10--------------10----------10------------|
|--------12--------------12------------12---|
|-------------------------------------------|
|-------------------------------------------|
|-------------------------------------------|
|-------------------------------------------|


 -----------------------|            ~~~~
  +S  S S    S S S    S S  E  S  S  +E. S
|------------------------------------------||
|--------------------------8-----8--(8)----||
|--------------------------7-----7--(7)----||
|--------------------------6-----6--(6)-5--||
|--------------------------7-----7--(7)-5--||
|-(0)-0-2----2-3-3----4-5---------------3--||
|
|                                ~~~~~~~
|  |-------3--------|
|  Q       Q        Q      E.    S  +E. S
|-10---------------10-----------10-(10)----||
|---------12--------------12---------------||
|------------------------------------------||
|------------------------------------------||
|------------------------------------------||
|------------------------------------------||


   Pre Chorus
    Gtrs I, II
                             PM-------------|        ~~~
    +Q   +E. S +Q   +E. S   +S  S S S S S S S E S S +E. S  3x
||------------------------|--------------------------------||
||o-----------------------|-------------------3---2-(2)---o||
||-----------2-(2)--(2)---|-------------------2---2-(2)----||
||--(5)--(5)-2-(2)--(2)---|-----------------------------5--||
||o-(5)--(5)-0-(0)--(0)---|-----------------------------5-o||
||--(3)--(3)------------0-|-(0)-0-2-2-3-3-4-5-----------3--||


  +Q   +E. S +H       W           H     Q    Q
|-------------------|----------|-----------------||
|-------------------|----------|-----------/15\--||
|----------2-(2)----|-4--------|-(4)-------/14\--||
|-(5)--(5)-2-(2)----|-4--------|-(4)-------------||
|-(5)--(5)-0-(0)----|-2--------|-(2)-------------||
|-(3)--(3)----------|----------|-----------------||
                                 +W


   Outro Chorus
    Gtr I
     PM----------------|              ~~~~PM-
     S S  S S  S  S  S S  E    S  S  +E.  S
||------------------------------------------|
||o-----------------------3-------2--(2)----|
||------------------------2-------2--(2)----|
||------------------------------------------|
||o-----------------------------------------|
||---0-0--2-2--3--3--4-5------------------0-|
|
|   Gtr II
|    E    S S  S  E.      S S  S  S  +E.  S
||------------------------------------------|
||o-----------------------------------------|
||-------12-x-12---------12-x-12------------|
||--14---12-x-12-14------12-x-12-14-(14)-14-|
||o-14-----------14--------------14-(14)-14-|
||------------------------------------------|


 ---------------------|              ~~~~
  +S  S  S S  S  S  S S  E    S  S  +E.  S
|-------------------------------------------|
|------------------------8-------8--(8)-----|
|------------------------7-------7--(7)-----|
|------------------------6-------6--(6)-----|
|------------------------7-------7--(7)-----|
|-(0)-0--2-2--3--3--4-5------------------0--|
|
|  E     S S  S  E.      S S  S  S  +E.  S
|-------------------------------------------|
|-------------------------------------------|
|-------12-x-12---------12-x-12-14-(14)-14--|
|-14----12-x-12-14------12-x-12-14-(14)-14--|
|-14------------14--------------------------|
|-------------------------------------------|


   PM-----------------|              ~~~~PM-
  +S  S  S S  S  S  S S  E    S  S  +E.  S
|------------------------------------------|
|------------------------3-------2--(2)----|
|------------------------2-------2--(2)----|
|------------------------------------------|
|------------------------------------------|
|-(0)-0--2-2--3--3--4-5------------------0-|
|
|  E     S S  S  E.      S S  S  S  +E.  S
|------------------------------------------|
|------------------------------------------|
|-------12-x-12---------12-x-12------------|
|-14----12-x-12-14------12-x-12-14-(14)-14-|
|-14------------14--------------14-(14)-14-|
|------------------------------------------|


 ---------------------|              ~~~~
  +S  S  S S  S  S  S S  E    S  S  +E.  S  5x
|-------------------------------------------||
|------------------------8-------8--(8)----o||
|------------------------7-------7--(7)-----||
|------------------------6-------6--(6)-----||
|------------------------7-------7--(7)----o||
|-(0)-0--2-2--3--3--4-5------------------0--||
|
|  E     S S  S  E.      S S  S  S  +E.  S  5x
|-------------------------------------------||
|------------------------------------------o||
|-------12-x-12---------12-x-12-14-(14)-14--||
|-14----12-x-12-14------12-x-12-14-(14)-14--||
|-14------------14-------------------------o||
|-------------------------------------------||

comments
print report bad tab
5 comments total. Showing first comments.
+2 reply
rocker931 wrote on November 4 2007, 11:34 am

The person who tabbed this is making a simple tab very difficult to read.

0 reply
rocker931 wrote on November 18 2007, 12:04 am

Yea, I rerated it. I play this part differently though:



PM-------------| ~~~PM------------------| ~~~PM
+S S S S S S S S E S S +E. S +S S S S S S S S E S S +E. S
|-------------------------------|-------------------------------|
|-------------------8---8-(8)---|-------------------3---2-(2)---|
|-------------------7---7-(7)---|-------------------2---2-(2)---|
|-------------------6---6-(6)---|-------------------------------|
|-------------------7---7-(7)---|-------------------------------|
|-(0)-0-2-2-3-3-4-5-----------0-|-(0)-0-2-2-3-3-4-5-----------0-|

+1 reply
A7X43 wrote on March 29 2008, 11:03 am

What's the "+" mean? You should put a key.

I want to post or [tab]
guest
You may want to rate the tab now too:
select rating
Please do not post tabs as comments. Select "correction" instead!