Oops, an error
Loading. Please wait.

Dr Feelgood Tab

ver3
ver3

Whole song

Interactive

More versions @911Tabs.com
59,722 views 24 this week
7 commentsread comments
1 2 3 4 5
accurate
x 11
Autoscroll
+/-
esc
set tempo
stop
Contributor
WARNING: You are trying to view
                                    content from Ultimate-Guitar.com
                                    in an unauthorized application,
                                    which is prohibited.

                                    Please use an official Ultimate
                                    Guitar Tabs application for iPhone,
                                    iPad or Android to access legitimate
                                    chords, guitar, bass, and drum tabs
                                    from Ultimate-Guitar.com database.

                                    Type "ultimate guitar tabs" in Apple
                                    App Store's or Android Market's
                                    search to find the application.
                             Motley Crue 

                            Dr. Feel Good

Tabbed by: James Flint 

Tune Down 1 step
DGCFAD



Rhythm Guitar 1



                              Intro                          
     H        Q     E.   S    S     S E  E  E  E  E  E  S S  
D||------------------------|--------------------------------|
A||------------------------|--------------------------------|
F||------------------------|--------------------------------|
C||------------------------|--------------------------------|
G||----------------------x-|--------x-x--x--x--x--x--x--x-x-|
D||----------------12S---0-|--L-----0-0--0--0--0--0--0--0-0-|


  S S E  E  E  E  E  E  S S    S S E  E  E  E  E  E  S S  
----------------------------|----------------------------|
----------------------------|----------------------------|
----------------------------|----------------------------|
----------------------------|----------------------------|
----x-x--x--x--x--x--x--x-x-|----x-x--x--x--x--x--x--x-x-|
--L-0-0--0--0--0--0--0--0-0-|--L-0-0--0--0--0--0--0--0-0-|


  S S E  E  E  E  E  E  S S    S S E  E  E  E  E  E  S S  
----------------------------|----------------------------|
----------------------------|----------------------------|
----------------------------|----------------------------|
----------------------------|----------------------------|
----x-x--x--x--x--x--x--x-x-|----x-x--x--x--x--x--x--x-x-|
--L-0-0--0--0--0--0--0--0-0-|--L-0-0--0--0--0--0--0--0-0-|


  S S E  E  E  E  E  E  S S    S S E  E  E  E  E  E  S S  
----------------------------|----------------------------|
----------------------------|----------------------------|
----------------------------|----------------------------|
----------------------------|----------------------------|
----x-x--x--x--x--x--x--x-x-|----x-x--x--x--x--x--x--x-x-|
--L-0-0--0--0--0--0--0--0-0-|--L-0-0--0--0--0--0--0--0-0-|


  S S E  E  E  E  E  E  S S    S S E  E  E  E  E  E  S S  
----------------------------|----------------------------|
----------------------------|----------------------------|
----------------------------|----------------------------|
----------------------------|----------------------------|
----x-x--x--x--x--x--x--x-x-|----x-x--x--x--x--x--x--x-x-|
--L-0-0--0--0--0--0--0--0-0-|--L-0-0--0--0--0--0--0--0-0-|


  S S E  E  E  E  E  E  S S    S S E  E  E  E  E  E  S S  
----------------------------|----------------------------|
----------------------------|----------------------------|
----------------------------|----------------------------|
----------------------------|----------------------------|
----x-x--x--x--x--x--x--x-x-|----x-x--x--x--x--x--x--x-x-|
--L-0-0--0--0--0--0--0--0-0-|--L-0-0--0--0--0--0--0--0-0-|


  S S E  E  E  E  E  E  S S    S S E  E  E  E  E  E  S S  
----------------------------|----------------------------|
----------------------------|----------------------------|
----------------------------|----------------------------|
----------------------------|----------------------------|
----x-x--x--x--x--x--x--x-x-|----x-x--x--x--x--x--x--x-x-|
--L-0-0--0--0--0--0--0--0-0-|--L-0-0--0--0--0--0--0--0-0-|


                            Riff B                              
  S S E  Q    Q    E.  S    S      S S S S S S S E  S S  E.  S  
-------------------------|-------------------------------------|
-------------------------|-----------------------3----2~-L-----|
-------------------------|-----------------------2----2~-L-----|
--------------x----x-----|-------------------------------------|
----x-x--x----x----x---x-|---------x-x-x-x-x-x-0-------------x-|
--L-0-0--0----x----x---0-|--L------0-2-2-3-3-4-x-------------0-|


  S S S S S S S S E  S S  E.  S    S S S S S S S S E  S S  E.  S  
--------------------------------|--------------------------------|
------------------8----8~-L-----|------------------3----2~-L-----|
------------------7----7~-L-----|------------------2----2~-L-----|
------------------6----6~-------|--------------------------------|
----x-x-x-x-x-x-0-7----7~-----x-|----x-x-x-x-x-x-0-------------x-|
--L-0-2-2-3-3-4-x-------------0-|--L-0-2-2-3-3-4-x-------------0-|


  S S S S S S S S E  S S  E.  S    S S S S S S S S E  S S  E.  S  
--------------------------------|--------------------------------|
------------------8----8~-L-----|------------------3----2~-L-----|
------------------7----7~-L-----|------------------2----2~-L-----|
------------------6----6~-------|--------------------------------|
----x-x-x-x-x-x-0-7----7~-----x-|----x-x-x-x-x-x-0-------------x-|
--L-0-2-2-3-3-4-x-------------0-|--L-0-2-2-3-3-4-x-------------0-|


  S S S S S S S S E  S S  E.  S    S S S S S S S S E  S S  E.  S  
--------------------------------|--------------------------------|
------------------8----8~-L-----|------------------3----2~-L-----|
------------------7----7~-L-----|------------------2----2~-L-----|
------------------6----6~-------|--------------------------------|
----x-x-x-x-x-x-0-7----7~-----x-|----x-x-x-x-x-x-0-------------x-|
--L-0-2-2-3-3-4-x-------------0-|--L-0-2-2-3-3-4-x-------------0-|


                                   Verse 1                      
  S S S S S S S S E  S S  E.  S    E       E  S E.  Q    E.  S  
--------------------------------|------------------------------|
------------------8----8~-L-----|------------------------------|
------------------7----7~-L---2-|--L------------2------------2-|
------------------6----6~-----2-|--L------------2------------2-|
----x-x-x-x-x-x-0-7----7~-----0-|--L-------x--x-0------------0-|
--L-0-2-2-3-3-4-x---------------|----------3--3----------------|


  E  E  S E.  Q    E.  S    E  E  S E.  Q    E.  S    E  E  S E.  Q    E.  S  
-------------------------|-------------------------|-------------------------|
-------------------------|-------------------------|-------------------------|
--L--------------------2-|--L-------2------------2-|--L--------------------2-|
--L--0----2------------2-|--L-------2------------2-|--L--0----2------------2-|
--L-----x-2------------0-|--L--x--x-0------------0-|--L-----x-2------------0-|
-----3--2-0--------------|-----3--3----------------|-----3--2-0--------------|


  E  E  S E.  E  E  E  S S    E  E  S E.  E  E  E  S S  
---------------------------|---------------------------|
---------------------------|---------------------------|
--L--0--0-2---x--x--x----2-|--L--0-------------------2-|
--L--0--0-2---x--x--x----2-|--L--0----2---x--x--x----2-|
--L-------0---0--0--0--x-0-|--L-----x-2---x--x--x--x-0-|
-----3--3--------------3---|-----3--2-0---0--0--0--3---|


  E  E  S E.  E  E  E  S S    E  E  S E.  E  E  E  S S  
---------------------------|---------------------------|
---------------------------|---------------------------|
--L--0--0-2---x--x--x----2-|--L--0---------------------|
--L--0--0-2---x--x--x----2-|--L--0----2---x--x--x--x-x-|
--L-------0---0--0--0--x-0-|--L-----x-2---x--x--x--x-x-|
-----3--3--------------3---|-----3--2-0---0--0--0--0-0-|


  Chorus                                                               
  S      S S S S S S S E  S S  E.  S    S S S S S S S S E  S S  E.  S  
-------------------------------------|--------------------------------|
-----------------------3----2~-L-----|------------------8----8~-L-----|
-----------------------2----2~-L-----|------------------7----7~-L-----|
-------------------------------------|------------------6----6~-------|
---------x-x-x-x-x-x-0-------------x-|----x-x-x-x-x-x-0-7----7~-----x-|
--L------0-2-2-3-3-4-x-------------0-|--L-0-2-2-3-3-4-x-------------0-|


  S S S S S S S S E  S S  E.  S    S S S S S S S S E  S S  E.  S  
--------------------------------|--------------------------------|
------------------3----2~-L-----|------------------8----8~-L-----|
------------------2----2~-L-----|------------------7----7~-L---2-|
--------------------------------|------------------6----6~-----2-|
----x-x-x-x-x-x-0-------------x-|----x-x-x-x-x-x-0-7----7~-----0-|
--L-0-2-2-3-3-4-x-------------0-|--L-0-2-2-3-3-4-x---------------|


  Verse 2                                                
  E       E  S E.  Q    E.  S    E  E  S E.  Q    E.  S  
------------------------------|-------------------------|
------------------------------|-------------------------|
--L------------2------------2-|--L--------------------2-|
--L------------2------------2-|--L--0----2------------2-|
--L-------x--x-0------------0-|--L-----x-2------------0-|
----------3--3----------------|-----3--2-0--------------|


  E  E  S E.  Q    E.  S    E  E  S E.  Q    E.  S    E  E  S E.  E  E  E  S S  
-------------------------|-------------------------|---------------------------|
-------------------------|-------------------------|---------------------------|
--L-------2------------2-|--L--------------------2-|--L--0--0-2---x--x--x----2-|
--L-------2------------2-|--L--0----2------------2-|--L--0--0-2---x--x--x----2-|
--L--x--x-0------------0-|--L-----x-2------------0-|--L-------0---0--0--0--x-0-|
-----3--3----------------|-----3--2-0--------------|-----3--3--------------3---|


  E  E  S E.  E  E  E  S S    E  E  S E.  E  E  E  S S  
---------------------------|---------------------------|
---------------------------|---------------------------|
--L--0-------------------2-|--L--0--0-2---x--x--x----2-|
--L--0----2---x--x--x----2-|--L--0--0-2---x--x--x----2-|
--L-----x-2---x--x--x--x-0-|--L-------0---0--0--0--x-0-|
-----3--2-0---0--0--0--3---|-----3--3--------------3---|


                              Chorus                              
  E  E  S E.  E  E  E  S S    S      S S S S S S S E  S S  E.  S  
---------------------------|-------------------------------------|
---------------------------|-----------------------3----2~-L-----|
--L--0---------------------|-----------------------2----2~-L-----|
--L--0----2---x--x--x--x-x-|-------------------------------------|
--L-----x-2---x--x--x--x-x-|---------x-x-x-x-x-x-0-------------x-|
-----3--2-0---0--0--0--0-0-|--L------0-2-2-3-3-4-x-------------0-|


  S S S S S S S S E  S S  E.  S    S S S S S S S S E  S S  E.  S  
--------------------------------|--------------------------------|
------------------8----8~-L-----|------------------3----2~-L-----|
------------------7----7~-L-----|------------------2----2~-L-----|
------------------6----6~-------|--------------------------------|
----x-x-x-x-x-x-0-7----7~-----x-|----x-x-x-x-x-x-0-------------x-|
--L-0-2-2-3-3-4-x-------------0-|--L-0-2-2-3-3-4-x-------------0-|


                                   Bridge                 
  S S S S S S S S E  S S  E.  S    Q.     S S Q.     S S  
--------------------------------|------------------------|
------------------8----8~-L-----|-----------2-L------L---|
------------------7----7~-L---0-|--L------L-2-L------L---|
------------------6----6~-----0-|--L------L-2-L------L-9-|
----x-x-x-x-x-x-0-7----7~-------|-----------0-L------L-7-|
--L-0-2-2-3-3-4-x-------------3-|--L------L------------0-|


  E  E  E  E  E  E  E  S S    Q.     S S Q.     S S  
---------------------------|------------------------|
---------------------------|-----------2-L------L---|
-------------------------0-|--L------L-2-L------L---|
--L----------------------0-|--L------L-2-L------L-9-|
--L--x--x--x--x--x--x--x---|-----------0-L------L-7-|
--L--0--0--0--0--0--0--0-3-|--L------L------------0-|


  E  E  E  E  E  E  E  S S    Q.     S S Q    E.  S  
---------------------------|------------------------|
---------------------------|-----------2-L----------|
-------------------------0-|--L------L-2-L----2-----|
--L----------------------0-|--L------L-2-L----2---9-|
--L--x--x--x--x--x--x--x---|-----------0-L----0---7-|
--L--0--0--0--0--0--0--0-3-|--L------L------------0-|


  E  E  E  E  E  E  E  S S    Q.     S S H           W                 
---------------------------|----------------------|-------------------|
---------------------------|-----------2-L--------|-------------------|
-------------------------0-|--L------L-2-L--------|--4----------------|
--L----------------------0-|--L------L-2-L--------|--4----------------|
--L--x--x--x--x--x--x--x---|-----------0-L--------|--2----------------|
--L--0--0--0--0--0--0--0-3-|--L------L------------|-------------------|


  H        Q    E  S S    S S S S S S S S E  S S  E.  S  
-----------------------|--------------------------------|
-----------------------|------------------3----2~-L-----|
--L--------L----L--L---|------------------2----2~-L-----|
--L--------L----L--L---|--------------------------------|
--L--------L----L--L-x-|----x-x-x-x-x-x-0-------------x-|
---------------------0-|--L-0-2-2-3-3-4-x-------------0-|


  S S S S S S S S E  S S  E.  S    S S S S S S S S E  S S  E.  S  
--------------------------------|--------------------------------|
------------------8----8~-L-----|------------------3----2~-L-----|
------------------7----7~-L-----|------------------2----2~-L-----|
------------------6----6~-------|--------------------------------|
----x-x-x-x-x-x-0-7----7~-----x-|----x-x-x-x-x-x-0-------------x-|
--L-0-2-2-3-3-4-x-------------0-|--L-0-2-2-3-3-4-x-------------0-|


                                   Verse 3                      
  S S S S S S S S E  S S  E.  S    E       E  S E.  Q    E.  S  
--------------------------------|------------------------------|
------------------8----8~-L-----|------------------------------|
------------------7----7~-L---2-|--L------------2------------2-|
------------------6----6~-----2-|--L------------2------------2-|
----x-x-x-x-x-x-0-7----7~-----0-|--L-------x--x-0------------0-|
--L-0-2-2-3-3-4-x---------------|----------3--3----------------|


  E  E  S E.  Q    E.  S    E  E  S E.  Q    E.  S    E  E  S E.  Q    E.  S  
-------------------------|-------------------------|-------------------------|
-------------------------|-------------------------|-------------------------|
--L--------------------2-|--L-------2------------2-|--L--------------------2-|
--L--0----2------------2-|--L-------2------------2-|--L--0----2------------2-|
--L-----x-2------------0-|--L--x--x-0------------0-|--L-----x-2------------0-|
-----3--2-0--------------|-----3--3----------------|-----3--2-0--------------|


  E  E  S E.  E  E  E  S S    E  E  S E.  E  E  E  S S  
---------------------------|---------------------------|
---------------------------|---------------------------|
--L--0--0-2---x--x--x----2-|--L--0-------------------2-|
--L--0--0-2---x--x--x----2-|--L--0----2---x--x--x----2-|
--L-------0---0--0--0--x-0-|--L-----x-2---x--x--x--x-0-|
-----3--3--------------3---|-----3--2-0---0--0--0--3---|


  E  E  S E.  E  E  E  S S    E  E  S E.  E  E  E  S S  
---------------------------|---------------------------|
---------------------------|---------------------------|
--L--0--0-2---x--x--x----2-|--L--0---------------------|
--L--0--0-2---x--x--x----2-|--L--0----2---x--x--x--x-x-|
--L-------0---0--0--0--x-0-|--L-----x-2---x--x--x--x-x-|
-----3--3--------------3---|-----3--2-0---0--0--0--0-0-|


  Chorus                                                               
  S      S S S S S S S E  S S  E.  S    S S S S S S S S E  S S  E.  S  
-------------------------------------|--------------------------------|
-----------------------3----2~-L-----|------------------8----8~-L-----|
-----------------------2----2~-L-----|------------------7----7~-L-----|
-------------------------------------|------------------6----6~-------|
---------x-x-x-x-x-x-0-------------x-|----x-x-x-x-x-x-0-7----7~-----x-|
--L------0-2-2-3-3-4-x-------------0-|--L-0-2-2-3-3-4-x-------------0-|


  S S S S S S S S E  S S  E.  S    S S S S S S S S E  S S  E.  S  
--------------------------------|--------------------------------|
------------------3----2~-L-----|------------------8----8~-L-----|
------------------2----2~-L-----|------------------7----7~-L---0-|
--------------------------------|------------------6----6~-----0-|
----x-x-x-x-x-x-0-------------x-|----x-x-x-x-x-x-0-7----7~-------|
--L-0-2-2-3-3-4-x-------------0-|--L-0-2-2-3-3-4-x-------------3-|


  Bridge                                                                      
  Q.     S S Q.     S S    E  E  E  E  E  E  E  S S    Q.     S S Q.     S S  
------------------------|---------------------------|------------------------|
-----------2-L------L---|---------------------------|-----------2-L------L---|
--L------L-2-L------L---|-------------------------0-|--L------L-2-L------L---|
--L------L-2-L------L-9-|--L----------------------0-|--L------L-2-L------L-9-|
-----------0-L------L-7-|--L--x--x--x--x--x--x--x---|-----------0-L------L-7-|
--L------L------------0-|--L--0--0--0--0--0--0--0-3-|--L------L------------0-|


  E  E  E  E  E  E  E  S S    Q.     S S Q    E.  S  
---------------------------|------------------------|
---------------------------|-----------2-L----------|
-------------------------0-|--L------L-2-L----2-----|
--L----------------------0-|--L------L-2-L----2---9-|
--L--x--x--x--x--x--x--x---|-----------0-L----0---7-|
--L--0--0--0--0--0--0--0-3-|--L------L------------0-|


  E  E  E  E  E  E  E  S S    Q.     S S H           W                 
---------------------------|----------------------|-------------------|
---------------------------|-----------2-L--------|-------------------|
-------------------------0-|--L------L-2-L--------|--4----------------|
--L----------------------0-|--L------L-2-L--------|--4----------------|
--L--x--x--x--x--x--x--x---|-----------0-L--------|--2----------------|
--L--0--0--0--0--0--0--0-3-|--L------L------------|-------------------|


                          Interlude                          
  H        Q    E  S S    S         S E  E  E  E  E  E  S S  
-----------------------|------------------------------------|
-----------------------|------------------------------------|
--L--------L----L--L---|------------------------------------|
--L--------L----L--L---|------------------------------------|
--L--------L----L--L-x-|------------x-x--x--x--x--x--x--x-x-|
---------------------0-|--L---------0-0--0--0--0--0--0--0-0-|


  S S E  E  E  E  E  E  S S    S S E  E  E  E  E  E  S S  
----------------------------|----------------------------|
----------------------------|----------------------------|
----------------------------|----------------------------|
----------------------------|----------------------------|
----x-x--x--x--x--x--x--x-x-|----x-x--x--x--x--x--x--x-x-|
--L-0-0--0--0--0--0--0--0-0-|--L-0-0--0--0--0--0--0--0-0-|


  S S E  E  E  E  E  E  S S    S S E  E  E  E  E  E  S S  
----------------------------|----------------------------|
----------------------------|----------------------------|
----------------------------|----------------------------|
----------------------------|----------------------------|
----x-x--x--x--x--x--x--x-x-|----x-x--x--x--x--x--x--x-x-|
--L-0-0--0--0--0--0--0--0-0-|--L-0-0--0--0--0--0--0--0-0-|


  S S E  E  E  E  E  E  S S    S S E  E  E  E  E  E  S S  
----------------------------|----------------------------|
----------------------------|----------------------------|
----------------------------|----------------------------|
----------------------------|----------------------------|
----x-x--x--x--x--x--x--x-x-|----x-x--x--x--x--x--x--x-x-|
--L-0-0--0--0--0--0--0--0-0-|--L-0-0--0--0--0--0--0--0-0-|


                              Guitar Solo                 
  S S E  E  E  E  E  E.  S    Q.          S S Q.     S S  
---------------------------|-----------------------------|
---------------------------|----------------2-L------L---|
-------------------------0-|--L-----------L-2-L------L---|
-------------------------0-|--L-----------L-2-L------L-9-|
--x-x-x--x--x--x-----------|----------------0-L------L-7-|
--0-0-0--0--0--0---------3-|--L-----------L------------0-|


  E  E  E  E  E  E  E  S S    Q.     S S Q.     S S  
---------------------------|------------------------|
---------------------------|-----------2-L------L---|
-------------------------0-|--L------L-2-L------L---|
--L----------------------0-|--L------L-2-L------L-9-|
--L--x--x--x--x--x--x--x---|-----------0-L------L-7-|
--L--0--0--0--0--0--0--0-3-|--L------L------------0-|


  E  E  E  E  E  E  E  S S    Q.     S S Q    E.  S  
---------------------------|------------------------|
---------------------------|-----------2-L----------|
-------------------------0-|--L------L-2-L----2-----|
--L----------------------0-|--L------L-2-L----2---9-|
--L--x--x--x--x--x--x--x---|-----------0-L----0---7-|
--L--0--0--0--0--0--0--0-3-|--L------L------------0-|


  E  E  E  E  E  E  E  S S    Q.     S S H           W                 
---------------------------|----------------------|-------------------|
---------------------------|-----------2-L--------|-------------------|
-------------------------0-|--L------L-2-L--------|--4----------------|
--L----------------------0-|--L------L-2-L--------|--4----------------|
--L--x--x--x--x--x--x--x---|-----------0-L--------|--2----------------|
--L--0--0--0--0--0--0--0-3-|--L------L------------|-------------------|


  H        Q    E  S S    S S S S S S S S E  S S  E.  S  
-----------------------|--------------------------------|
-----------------------|------------------3----2~-L-----|
--L--------L----L--L---|------------------2----2~-L-----|
--L--------L----L--L---|--------------------------------|
--L--------L----L--L-x-|----x-x-x-x-x-x-0-------------x-|
---------------------0-|--L-0-2-2-3-3-4-x-------------0-|


  S S S S S S S S E  S S  E.  S    S S S S S S S S E  S S  E.  S  
--------------------------------|--------------------------------|
------------------8----8~-L-----|------------------3----2~-L-----|
------------------7----7~-L-----|------------------2----2~-L-----|
------------------6----6~-------|--------------------------------|
----x-x-x-x-x-x-0-7----7~-----x-|----x-x-x-x-x-x-0-------------x-|
--L-0-2-2-3-3-4-x-------------0-|--L-0-2-2-3-3-4-x-------------0-|


  S S S S S S S S E  S S  E.  S    S S S S S S S S E  S S  E.  S  
--------------------------------|--------------------------------|
------------------8----8~-L-----|------------------3----2~-L-----|
------------------7----7~-L-----|------------------2----2~-L-----|
------------------6----6~-------|--------------------------------|
----x-x-x-x-x-x-0-7----7~-----x-|----x-x-x-x-x-x-0-------------x-|
--L-0-2-2-3-3-4-x-------------0-|--L-0-2-2-3-3-4-x-------------0-|


  S S S S S S S S E  S S  E.  S    S S S S S S S S E  S S  E.  S  
--------------------------------|--------------------------------|
------------------8----8~-L-----|------------------3----2~-L-----|
------------------7----7~-L-----|------------------2----2~-L-----|
------------------6----6~-------|--------------------------------|
----x-x-x-x-x-x-0-7----7~-----x-|----x-x-x-x-x-x-0-------------x-|
--L-0-2-2-3-3-4-x-------------0-|--L-0-2-2-3-3-4-x-------------0-|


  S S S S S S S S E  S S  E.  S    Q.     S S Q.     S S  
--------------------------------|------------------------|
------------------8----8~-L-----|-----------2-L------L---|
------------------7----7~-L---0-|--L------L-2-L------L---|
------------------6----6~-----0-|--L------L-2-L------L-9-|
----x-x-x-x-x-x-0-7----7~-------|-----------0-L------L-7-|
--L-0-2-2-3-3-4-x-------------3-|--L------L------------0-|


  S S S S S S S S E  S S  E.  S    Q.     S S Q.     S S  
--------------------------------|------------------------|
------------------3----2~-L-----|-----------2-L------L---|
------------------2----2~-L---0-|--L------L-2-L------L---|
------------------------------0-|--L------L-2-L------L-9-|
----x-x-x-x-x-x-0---------------|-----------0-L------L-7-|
--L-0-2-2-3-3-4-x-------------3-|--L------L------------0-|


  S S S S S S S S E  S S  E.  S    Q.     S S Q    E.  S  
--------------------------------|------------------------|
------------------3----2~-L-----|-----------2-L----------|
------------------2----2~-L---0-|--L------L-2-L----2-----|
------------------------------0-|--L------L-2-L----2---9-|
----x-x-x-x-x-x-0---------------|-----------0-L----0---7-|
--L-0-2-2-3-3-4-x-------------3-|--L------L------------0-|


  S S S S S S S S E  S S  E.  S    Q.     S S H           W                 
--------------------------------|----------------------|-------------------|
------------------3----2~-L-----|-----------2-L--------|-------------------|
------------------2----2~-L---0-|--L------L-2-L--------|--4----------------|
------------------------------0-|--L------L-2-L--------|--4----------------|
----x-x-x-x-x-x-0---------------|-----------0-L--------|--2----------------|
--L-0-2-2-3-3-4-x-------------3-|--L------L------------|-------------------|


                          Outro                              
  H        Q    E  S S    S     S S S S S S S E  S S  E.  S  
-----------------------|------------------------------------|
-----------------------|----------------------3----2~-L-----|
--L--------L----L--L---|----------------------2----2~-L-----|
--L--------L----L--L---|------------------------------------|
--L--------L----L--L-x-|--------x-x-x-x-x-x-0-------------x-|
---------------------0-|--L-----0-2-2-3-3-4-x-------------0-|


  S S S S S S S S E  S S  E.  S    S S S S S S S S E  S S  E.  S  
--------------------------------|--------------------------------|
------------------8----8~-L-----|------------------3----2~-L-----|
------------------7----7~-L-----|------------------2----2~-L-----|
------------------6----6~-------|--------------------------------|
----x-x-x-x-x-x-0-7----7~-----x-|----x-x-x-x-x-x-0-------------x-|
--L-0-2-2-3-3-4-x-------------0-|--L-0-2-2-3-3-4-x-------------0-|


  S S S S S S S S E  S S  E.  S    S S S S S S S S E  S S  E.  S  
--------------------------------|--------------------------------|
------------------8----8~-L-----|------------------3----2~-L-----|
------------------7----7~-L-----|------------------2----2~-L-----|
------------------6----6~-------|--------------------------------|
----x-x-x-x-x-x-0-7----7~-----x-|----x-x-x-x-x-x-0-------------x-|
--L-0-2-2-3-3-4-x-------------0-|--L-0-2-2-3-3-4-x-------------0-|


  S S S S S S S S E  S S  E.  S    S S S S S S S S E  S S  E.  S  
--------------------------------|--------------------------------|
------------------8----8~-L-----|------------------3----2~-L-----|
------------------7----7~-L-----|------------------2----2~-L-----|
------------------6----6~-------|--------------------------------|
----x-x-x-x-x-x-0-7----7~-----x-|----x-x-x-x-x-x-0-------------x-|
--L-0-2-2-3-3-4-x-------------0-|--L-0-2-2-3-3-4-x-------------0-|


  S S S S S S S S E  S S  E.  S    S S S S S S S S E  S S  E.  S  
--------------------------------|--------------------------------|
------------------8----8~-L-----|------------------3----2~-L-----|
------------------7----7~-L-----|------------------2----2~-L-----|
------------------6----6~-------|--------------------------------|
----x-x-x-x-x-x-0-7----7~-----x-|----x-x-x-x-x-x-0-------------x-|
--L-0-2-2-3-3-4-x-------------0-|--L-0-2-2-3-3-4-x-------------0-|


  S S S S S S S S E  S S  E.  S    S S S S S S S S E  S S  E.  S  
--------------------------------|--------------------------------|
------------------8----8~-L-----|------------------3----2~-L-----|
------------------7----7~-L-----|------------------2----2~-L-----|
------------------6----6~-------|--------------------------------|
----x-x-x-x-x-x-0-7----7~-----x-|----x-x-x-x-x-x-0-------------x-|
--L-0-2-2-3-3-4-x-------------0-|--L-0-2-2-3-3-4-x-------------0-|


  S S S S S S S S E  S S  E.  S    S S S S S S S S E  S S  E.  S  
--------------------------------|--------------------------------|
------------------8----8~-L-----|------------------3----2~-L-----|
------------------7----7~-L-----|------------------2----2~-L-----|
------------------6----6~-------|--------------------------------|
----x-x-x-x-x-x-0-7----7~-----x-|----x-x-x-x-x-x-0-------------x-|
--L-0-2-2-3-3-4-x-------------0-|--L-0-2-2-3-3-4-x-------------0-|


  S S S S S S S S E  S S  E.  S    S S S S S S S S E  S S  E.  S  
--------------------------------|--------------------------------|
------------------8----8~-L-----|------------------3----2~-L-----|
------------------7----7~-L-----|------------------2----2~-L-----|
------------------6----6~-------|--------------------------------|
----x-x-x-x-x-x-0-7----7~-----x-|----x-x-x-x-x-x-0-------------x-|
--L-0-2-2-3-3-4-x-------------0-|--L-0-2-2-3-3-4-x-------------0-|


  S S S S S S S S E  S S  E.  S    S S S S S S S S E  S S  E.  S  
--------------------------------|--------------------------------|
------------------8----8~-L-----|------------------3----2~-L-----|
------------------7----7~-L-----|------------------2----2~-L-----|
------------------6----6~-------|--------------------------------|
----x-x-x-x-x-x-0-7----7~-----x-|----x-x-x-x-x-x-0-------------x-|
--L-0-2-2-3-3-4-x-------------0-|--L-0-2-2-3-3-4-x-------------0-|


  S S S S S S S S E  S S  E.  S    S S S S S S S S E  S S  E.  S  
--------------------------------|--------------------------------|
------------------8----8~-L-----|------------------3----2~-L-----|
------------------7----7~-L-----|------------------2----2~-L-----|
------------------6----6~-------|--------------------------------|
----x-x-x-x-x-x-0-7----7~-----x-|----x-x-x-x-x-x-0-------------x-|
--L-0-2-2-3-3-4-x-------------0-|--L-0-2-2-3-3-4-x-------------0-|


  S S S S S S S S E  S S  E.  S   
--------------------------------||
------------------8----8~-L-----||
------------------7----7~-L-----||
------------------6----6~-------||
----x-x-x-x-x-x-0-7----7~-----x-||
--L-0-2-2-3-3-4-x-------------0-||




Duration Legend
---------------
W - whole
H - half
Q - quarter
E - 8th
S - 16th
T - 32nd
X - 64th
. - note dotted
|-n-|  - n-tuplets


Tablature Legend
----------------
L - tied note
x - dead note
g - grace note
(n) - ghost note
> - accentuded note
NH - natural harmonic
AH - artificial harmonic
TH - tapped harmonic
SH - semi harmonic
PH - pitch harmonic
h - hammer on
p - pull off
b - bend
br - bendRelease
pb - preBend
pbr - preBendRelease
brb - bendReleaseBend
\n/ - tremolo bar dip
\n - tremolo bar dive
-/n - tremolo bar Release up
/n\ - tremolo bar inverted dip
/n - tremolo bar return
-\n - tremolo bar Release down
S - shift slide
s - legato slide
/ -  slide into from below or out of upwards
\ -  slide into from above or out of downwards
~ - vibrato
W - wide vibrato
tr - trill
TP - tremolo picking
T - tapping
S - slap
P - pop
< - fade in
^ - brush up
v - brush down
comments
print report bad tab
7 comments total. Showing first comments.
+2 reply
napalm890 wrote on June 4 2008, 02:16 pm

Crap, forget to include the solos and other lead parts with the tab, hopefully you can make sense of this if not then just ignore it

H Q E S S
---------------------------|
---------------------------|
-------------------x-x-|
-------------------6-7-|
---------------------------|
---------------------------|


S S E H Q
---------------------------------|
---------------------------------|
--x-x-x--------------------|
--6-6-7--4pb--------L----|
---------------------------------|
---------------------------------|


Yes, I know these are supposed
Q Q E Q S
--------------------7b----------------------------
--------------------------------------------------
--------------------------------------------------
--L----L----L--L----------------------------------
--------------------------------------------------
--------------------------------------------------


E E E E E E E S S
--7pb--7pb--L--L--L--L--L----15-|
-----------------------------15-|
---------------------------x----|
---------------------------x----|
--------------------------------|
--------------------------------|


...but I tabbed it so it would sound right..
S S
---L-12pb-----------------------------------------
-----12pb-----------------------------------------
--------------------------------------------------
--------------------------------------------------
--------------------------------------------------
--------------------------------------------------


...because I can't use the whammy bar and...
E E
--L--7pb------------------------------------------
--------------------------------------------------
--------------------------------------------------
--------------------------------------------------
--------------------------------------------------
--------------------------------------------------


...harmonics in
E E E E E E E S S
---------------------------------10---------------
--------------------------------------------------
---L--9pb---L---L---L---L---L--x------------------
---L--9pb---L---L---L---L---L--x------------------
--------------------------------------------------
--------------------------------------------------


E E E E E E E S S
--7pb--7pb--L--L--L--L--L----15-|
-----------------------------15-|
---------------------------x----|
---------------------------x----|
--------------------------------|
--------------------------------|


S S E E E E E E S S
---L-12pb-12pb---L---L---L---L---L----10-|
-----12pb-12pb---L---L---L---L---L-------|
------------------------------------x----|
------------------------------------x----|
-----------------------------------------|
-----------------------------------------|


E E E E E E E S S
--L--7pb--L--L--L--L--L--------|
-------------------------------|
----------------------------12-|
-------------------------12-12-|
-------------------------------|
-------------------------------|


best i could do on this part,
S S E Q H
-------------------23pbr--------------------------
--------------------------------------------------
---L-9pb-9pb--L-----------------------------------
--------------------------------------------------
--------------------------------------------------
--------------------------------------------------


Q H Q W
--x------------------|-------------------|
---------------------|-------------------|
---------------------|-------------------|
---------------------|-------------------|
---------------------|-------------------|
---------------------|-------------------|


W W


W W
-------------------|-------------------|
-------------------|-------------------|
-------------------|-------------------|
-------------------|-------------------|
-------------------|-------------------|
-------------------|-------------------|


W W
-------------------|-------------------|
-------------------|-------------------|
-------------------|-------------------|
-------------------|-------------------|
-------------------|-------------------|
-------------------|-------------------|


W W
-------------------|-------------------|
-------------------|-------------------|
-------------------|-------------------|
-------------------|-------------------|
-------------------|-------------------|
-------------------|-------------------|


W W
-------------------|-------------------|
-------------------|-------------------|
------

+2 reply
buttcrack wrote on June 4 2008, 05:35 pm

WOW THIS TAB CHANGED MY LIFE. YOUR MY HERO MAN

0 reply
im a drummer! wrote on July 9 2008, 09:30 pm

dude ty soooooo much finally a good motley crue tab if u can post some more cause u rock!

I want to post or [tab]
guest
You may want to rate the tab now too:
select rating
Please do not post tabs as comments. Select "correction" instead!