Oops, an error
Loading. Please wait.

Fight For Your Rights Tab

ver1
ver1

Whole song

Interactive

More versions @911Tabs.com
3,341 views 9 this week
no commentswrite comment
1 2 3 4 5
excellent!
x 3
Autoscroll
+/-
esc
set tempo
stop
Contributor
WARNING: You are trying to view
                                    content from Ultimate-Guitar.com
                                    in an unauthorized application,
                                    which is prohibited.

                                    Please use an official Ultimate
                                    Guitar Tabs application for iPhone,
                                    iPad or Android to access legitimate
                                    chords, guitar, bass, and drum tabs
                                    from Ultimate-Guitar.com database.

                                    Type "ultimate guitar tabs" in Apple
                                    App Store's or Android Market's
                                    search to find the application.
Band- Motley Crue
Song- Fight For Your Rights

 Slide
D---------------------|-----------------------------|-------------------|
A---------------------|-----------------------------|-------------------|
F---------------------|--2--------4--/--5--------0--|--2--------4--/----|
C---------------------|--2--------4--/--5--------0--|--2--------4--/----|
G---------------------|-----0--0-----------0--0-----|-----0--0----------|
D---------------------|-----------------------------|-------------------|

D---------------|-----------------------------|-------------------------|
A---------------|-----------------------------|-------------------------|
F---5--------0--|--2--------4--/--5--------0--|--2--------/5--7h8p7-----|
C---5--------0--|--2--------4--/--5--------0--|--2--------45--7-8-7-----|
G------0--0-----|-----0--0-----------0--0-----|-----0--0----------------|
D---------------|-----------------------------|-------------------------|

D------|------------------------|-----------------------------|---------|
A------|------------------------|-----------------------------|---------|
F---5--|--2--------/5--------0--|--2--------4--/--5--------0--|--2------|
C---5--|--2--------45--------0--|--2--------4--/--5--------0--|--2------|
G------|-----0--0------0--0-----|-----0--0-----------0--0-----|---------|
D------|------------------------|-----------------------------|---------|


                                                       Verse
D---------------------------|-----------------------|-------------------|
A---------------------------|-----------------------|-------------------|
F---------4--/--5--------0--|--2-----------5--6--7--|--2--------4--/----|
C---------4--/--5--------0--|--2-----------5--6--7--|--2--------4--/----|
G---0--0-----------0--0-----|-----0--0--0-----------|-----0--0----------|
D---------------------------|-----------------------|-------------------|

D---------------|------------------------|------------------------|-----|
A---------------|------------------------|------------------------|-----|
F---5--------0--|--2--------/5--------0--|--2--------/5--------0--|-----|
C---5--------0--|--2--------45--------0--|--2--------45--------0--|-----|
G------0--0-----|-----0--0------0--0-----|-----0--0------0--0-----|-----|
D---------------|------------------------|------------------------|-----|

D------------------------|------------------------|---------------------|
A------------------------|------------------------|---------------------|
F---2-----------5--6--7--|--2--------/5--------0--|--2--------/5--------|
C---2-----------5--6--7--|--2--------45--------0--|--2--------45--------|
G------0--0--0-----------|-----0--0------0--0-----|-----0--0------0-----|
D------------------------|------------------------|---------------------|

D---------|------------------------|-----------------------|------------|
A---------|------------------------|-----------------------|------------|
F------0--|--2--------/5--------0--|--2-----------5--6--7--|--9---------|
C------0--|--2--------45--------0--|--2-----------5--6--7--|--9---------|
G---0-----|-----0--0------0--0-----|-----0--0--0-----------|------------|
D---------|------------------------|-----------------------|------------|

D---------------------|-------------------------|-----------------------|
A---------------------|-------------------------|-----------------------|
F------------9--------|--10-----------10--------|--7-----------7--------|
C------------9--------|--10-----------10--------|--7-----------7--------|
G---0--0--0-----0--0--|------0--0--0------0--0--|-----0--0--0-----0-----|
D---------------------|-------------------------|-----------------------|

D------|--------------------|--------------------------|----------------|
A------|--------------------|--------------------------|----------------|
F------|--9--------9--7--9--|--9--------------9--------|--10------------|
C------|--9--------9--7--9--|--9--------------9--------|--10------------|
G---0--|-----0--0-----------|--------0--0--0-----0--0--|------0--0------|
D------|--------------------|--------------------------|----------------|

D----------------|-----------------------|--------------------|---------|
A----------------|-----------------------|--------------------|---------|
F------10--------|--7-----------7--------|--9--------9--9--9--|---------|
C------10--------|--7-----------7--------|--9--------9--9--9--|---------|
G---0------0--0--|-----0--0--0-----0--0--|-----0--0-----------|---------|
D----------------|-----------------------|--------------------|---------|


       Chorus
D------------------------------------------------------|----------------|
A------------------------------------------------------|----------------|
F------------------------------------------------------|----------------|
C---------------9-----5-----4--2--2--9-----4--5--4--2--|--------9-------|
G---------------9-----5-----4--2--2--9-----4--5--4--2--|--------9-------|
D------0--------------------------0-----0--------------|--0-------------|

D-----------------------------------------------------------------------|
A-----------------------------------------------------------------------|
F-----------------------------------------------------------------------|
C---5-----4--2--2--9-----4--5--------------9-----5-----4--2--2--9-------|
G---5-----4--2--2--9-----4--5--------------9-----5-----4--2--2--9-------|
D---------------0-----0-----------0--------------------------0-----0----|

D---------------|-------------------------------------------------------|
A---------------|-------------------------------------------------------|
F---------------|-----------------------------------------2--------4----|
C---4--5--4--2--|--------9-----5-----4--2--2--9-----4--5--2--------4----|
G---4--5--4--2--|--------9-----5-----4--2--2--9-----4--5-----0--0-------|
D---------------|--0-----------------------0-----0----------------------|

D-----------------|------------------------|----------------------------|
A-----------------|------------------------|----------------------------|
F----/5--------0--|--2--------/5--------0--|--2--------/5--------0------|
C---/-5--------0--|--2--------45--------0--|--2--------45--------0------|
G--------0--0-----|-----0--0------0--0-----|-----0--0------0--0---------|
D-----------------|------------------------|----------------------------|


                               2nd Verse
D---|-----------------------|-----------------------------|-------------|
A---|-----------------------|-----------------------------|-------------|
F---|--2-----------5--6--7--|--2--------4--/--5--------0--|--2----------|
C---|--2-----------5--6--7--|--2--------4--/--5--------0--|--2----------|
G---|-----0--0--0-----------|-----0--0-----------0--0-----|-----0--0----|
D---|-----------------------|-----------------------------|-------------|

D---------------------|-----------------------------|-------------------|
A---------------------|-----------------------------|-------------------|
F---4--/--5--------0--|--2--------4--/--5--------0--|--2-----------5----|
C---4--/--5--------0--|--2--------4--/--5--------0--|--2-----------5----|
G------------0--0-----|-----0--0-----------0--0-----|-----0--0--0-------|
D---------------------|-----------------------------|-------------------|

D---------|--------------------------------|----------------------------|
A---------|--------------------------------|----------------------------|
F---6--7--|-----2--------4--/--5--------0--|--2--------4--/--5----------|
C---6--7--|-----2--------4--/--5--------0--|--2--------4--/--5----------|
G---------|--------0--0-----------0--0-----|-----0--0-----------0--0----|
D---------|--------------------------------|----------------------------|

D------|-----------------------------|-----------------------|----------|
A------|-----------------------------|-----------------------|----------|
F---0--|--2--------4--/--5--------0--|--2-----------5--6--7--|--9-------|
C---0--|--2--------4--/--5--------0--|--2-----------5--6--7--|--9-------|
G------|-----0--0-----------0--0-----|-----0--0--0-----------|----------|
D------|-----------------------------|-----------------------|----------|

D---------------------|-------------------------|-----------------------|
A---------------------|-------------------------|-----------------------|
F------------9--------|--10-----------10--------|--7-----------7--------|
C------------9--------|--10-----------10--------|--7-----------7--------|
G---0--0--0-----0--0--|------0--0--0------0--0--|-----0--0--0-----0-----|
D---------------------|-------------------------|-----------------------|

D------|--------------------|--------------------------|----------------|
A------|--------------------|--------------------------|----------------|
F------|--9--------9--7--9--|--9--------------9--------|--10------------|
C------|--9--------9--7--9--|--9--------------9--------|--10------------|
G---0--|-----0--0-----------|--------0--0--0-----0--0--|------0--0------|
D------|--------------------|--------------------------|----------------|

D----------------|-----------------------|--------------------|---------|
A----------------|-----------------------|--------------------|---------|
F------10--------|--7-----------7--------|--9--------9--9--9--|---------|
C------10--------|--7-----------7--------|--9--------9--9--9--|---------|
G---0------0--0--|-----0--0--0-----0--0--|-----0--0-----------|---------|
D----------------|-----------------------|--------------------|---------|


    Chorus
D---------------------------------------------------|-------------------|
A---------------------------------------------------|-------------------|
F---------------------------------------------------|-------------------|
C------------9-----5-----4--2--2--9-----4--5--4--2--|--------9-----5----|
G------------9-----5-----4--2--2--9-----4--5--4--2--|--------9-----5----|
D---0--------------------------0-----0--------------|--0----------------|

D---------------------------|-------------------------------------------|
A---------------------------|-------------------------------------------|
F---------------------------|-------------------------------------------|
C------4--2--2--9-----4--5--|-----------9-----5-----4--2--2--9-----4----|
G------4--2--2--9-----4--5--|-----------9-----5-----4--2--2--9-----4----|
D------------0-----0--------|--0--------------------------0-----0-------|


                                                          Solo
D------------|-----------------------------------------|----------------|
A------------|-----------------------------------------|----------------|
F------------|-----------------------------------------|-----7^--7------|
C---5--4--2--|--------9-----5-----4--2--2--9-----4--5--|----------------|
G---5--4--2--|--------9-----5-----4--2--2--9-----4--5--|----------------|
D------------|--0-----------------------0-----0--------|----------------|

D-------------------------------------------------/17--17--17--17-------|
A-----------------------------------------------------------------------|
F---6-----------------------19^--16--17--16--14-------------------------|
C------7---\---7--9--10--9----------------------------------------------|
G-----------------------------------------------------------------------|
D-----------------------------------------------------------------------|

D---17--27--17--17--17--19--20--19-----22^--19--20--19--17--------------|
A-----------------------------------------------------------------------|
F------------------------------------------------------------/16--------|
C-----------------------------------------------------------------------|
G-----------------------------------------------------------------------|
D-----------------------------------------------------------------------|


D-----------------------------------------------------------------------|
A---------------------------------------------14---------------12-------|
F---~~~---/16~~~------16--17--16--------------16^--------------14^------|
C-----------------17----------------------------------------------------|
G---------------------------------0--0--0--0-------0--0--0--0-----------|
D-----------------------------------------------------------------------|

D-----------------------------------------------------------------------|
A---------------11---------------12-------------------------------------|
F---------------13^--------------14^---/16~~~---/16~~~------16--17------|
C-------------------------------------------------------17--------------|
G---0--0--0--0-------0--0--0--0-----------------------------------------|
D-----------------------------------------------------------------------|

D-----------------------------------------------------------------------|
A-------------------14---------------12---------------11----------------|
F---16--------------16^--------------14^--------------13^---------------|
C-----------------------------------------------------------------------|
G-------0--0--0--0-------0--0--0--0-------0--0--0--0-------0--0--0------|
D-----------------------------------------------------------------------|

D-----------------------------------------------------------------------|
A------12---------------------------------------------------------------|
F------14^------------------------------------------------10-----12-----|
C-----------------------------------------------------------------------|
G---0----------8-----7--8--10--8--7--------9--10--12--10----------------|
D-----------------------------------------------------------------------|


                                                              Dive
D----------------------------------------------------------|------------|
A----------------------------------------------------------|------------|
F------14-----15--14---------12-----14--16-----17--16------|------------|
C---------------------15-------------------------------17--|------------|
G----------------------------------------------------------|------------|
D----------------------------------------------------------|------------|


                w/Bar
D-------------------------|----------19~~~--|---------------|-----------|
A---------------19~~~-----|------20---------|--19~~~--------|-----------|
F-------------------------|--19-------------|---------------|--2--------|
C-------------------------|-----------------|---------------|--2--------|
G-------------------------|-----------------|---------------|-----0-----|
D-------------------------|-----------------|---------------|-----------|

D-------------------|------------------------|--------------------------|
A-------------------|------------------------|--------------------------|
F------/5--------0--|--2--------/5--------0--|--2--------/5--------0----|
C------45--------0--|--2--------45--------0--|--2--------45--------0----|
G---0------0--0-----|-----0--0------0--0-----|-----0--0------0--0-------|
D-------------------|------------------------|--------------------------|

D---|-----------------------|-------------------------------------------|
A---|-----------------------|-------------------------------------------|
F---|--2-----------5--6--7--|-------------------------------------------|
C---|--2-----------5--6--7--|-----------9-----5-----4--2--2--9-----4----|
G---|-----0--0--0-----------|-----------9-----5-----4--2--2--9-----4----|
D---|-----------------------|--0--------------------------0-----0-------|

D------------|-----------------------------------------|----------------|
A------------|-----------------------------------------|----------------|
F------------|-----------------------------------------|----------------|
C---5--4--2--|--------9-----5-----4--2--2--9-----4--5--|-----------9----|
G---5--4--2--|--------9-----5-----4--2--2--9-----4--5--|-----------9----|
D------------|--0-----------------------0-----0--------|--0-------------|

D---------------------------------------|-------------------------------|
A---------------------------------------|-------------------------------|
F---------------------------------------|-------------------------------|
C------5-----4--2--2--9-----4--5--4--2--|--------9-----5-----4--2--2----|
G------5-----4--2--2--9-----4--5--4--2--|--------9-----5-----4--2--2----|
D------------------0-----0--------------|--0-----------------------0----|

D---------------|-----------------------------|-------------------------|
A---------------|-----------------------------|-------------------------|
F---------------|--2--------4--/--5--------0--|--2--------4--/--5-------|
C---9-----4--5--|--2--------4--/--5--------0--|--2--------4--/--5-------|
G---9-----4--5--|-----0--0-----------0--0-----|-----0--0-----------0----|
D------0--------|-----------------------------|-------------------------|

D---------|-----------------------------|-----------------------|-------|
A---------|-----------------------------|-----------------------|-------|
F------0--|--2--------4--/--5--------0--|--2-----------5--6--7--|-------|
C------0--|--2--------4--/--5--------0--|--2-----------5--6--7--|--5----|
G---0-----|-----0--0-----------0--0-----|-----0--0--0-----------|--5----|
D---------|-----------------------------|-----------------------|-------|

D-----------------------------------------------------------------------|
A-----------------------------------------------------------------------|
F-----------------------------------------------------------------------|
C---2-------------------------------------------------------------------|
G---2-------------------------------------------------------------------|
D-----------------------------------------------------------------------|


========================================================================
==                       TABLATURE EXPLANATION                        ==
========================================================================

----------                ----------                ----t---|
----5h8--- Hammeron       ----(8)--- Ghost          ----6---| Tap
----------                ---------- Note           --------|
----5p8--- Pulloff        ----------                --------|

----------                ----------                -----p--|
----5/8--- Slide Up       -----x---- Dead           -----7--| Pop
----------                ---------- Note           --s-----|
----5\8--- Slide Down     ----------                --5-----| Slap

----------                ||------|| Repeat         --------|
----5~~~-- Vibrato        ||*----*||                ---5^---| Bend
----------                ||*----*||                --------|
----------                ||------||                --------|

----------                ----------                --------|
-4:------- Time           ----------                --------|
-4:------- Signature      ----------                --------|
----------                ----------                --------|

Rhythm:
  w = whole note            W = dotted whole
  h = half note             H = dotted half
  q = quarter note          Q = dotted quarter
  e = eighth note           E = dotted eighth
  s = sixteenth note        S = dotted sixteenth
  t = 32nd note             T = dotted 32nd
  x = 64th note             X = dotted 64th
  ^ = triplet
comments
We did not receive enough feedback on this tab! Please rate:
print report bad tab
1 2 3 4 5
I want to post or [tab]
guest
You may want to rate the tab now too:
select rating
Please do not post tabs as comments. Select "correction" instead!