Oops, an error
Loading. Please wait.

Misunderstood Bass Tab

1,074 views 3 this week
no commentswrite comment
1 2 3 4 5
please rate
Autoscroll
+/-
esc
set tempo
stop
WARNING: You are trying to view
                                    content from Ultimate-Guitar.com
                                    in an unauthorized application,
                                    which is prohibited.

                                    Please use an official Ultimate
                                    Guitar Tabs application for iPhone,
                                    iPad or Android to access legitimate
                                    chords, guitar, bass, and drum tabs
                                    from Ultimate-Guitar.com database.

                                    Type "ultimate guitar tabs" in Apple
                                    App Store's or Android Market's
                                    search to find the application.
 MOTLEY CRUE MISUNDERSTOOD
 tabbed by: bighabit69@iamwasted.com
                         

tuning: C G C F

 Intro|-----|
|-----|
|-----|
|-----|


 1st Verse
|-----|
|-----|
|-----|
|-----|


 Chorus

|-----------|-----------|-----------|------------|
|-----------|-----------|-----------|------------|
|---0-------|-----------|---0-------|------------|
|--------5--|---0----0--|--------5--|---0----0---||-----------|-----------|-----------|------||
|-----------|-----------|-----------|------||
|---0-------|-----------|-0---------|------||
|--------5--|---0----0--|------5----|-0----||


 Interlude

|-----------------------|------------------|
|-----------------------|------------------|
|-5--(5)-3h5-3--(3)-3h5-|-2---2-0--(0)-2s3-|
|-----------------------|------------------||-----------------------|------------|
|--------5s7--------5s7-|------------|
|-5--(5)-----3--(3)-----|-2---2-0----|
|-----------------------|------------|


 
                      PM|                            PM|
|-------------|----------------|-------------|-----------------|
|-------------|----------------|-------------|-----------------|
|-5--5---3-3--|-2--2--x-x-0-0--|-5--5---3-3--|-2--2--x-x-0-0---|
|-------------|----------------|-------------|-----------------|                      PM|                            PM|
|-------------|----------------|-------------|-----------------||
|-------------|----------------|-------------|-----------------||
|-5--5---3-3--|-2--2--x-x-0-0--|-5--5---3-3--|-2--2--x-x-0-0---||
|-------------|----------------|-------------|-----------------||


 Chorus

|--------------|--------------------|------------------------|----------------|
|----7------5--|--------------------|------------------------|----------------|
|--------------|-5--5--(5)-5-5-(5)--|----7s9s7-----------5h7-|-5--5--5-5-5-5--|
|-7-----5-5----|--------------------|-7--------5-5-5-5h7-----|----------------|


  
|---------------|-------------------|-----------|------||
|---------------|-------------------|-----------|------||
|---------------|-5--5--(5)-5-5-5-5-|-----------|------||
|-7--7--5-5-5-5-|-------------------|-7----5----|-0----||


 2nd Verse

                            
|----------|-------------------------------|-----------------------------|
|----------|-------------------------------|--------------------0--------|
|----------|-------------------------0-2-3-|-(3)--3-2-(2)-0-2-3---2------|
|--------0-|-(0)-0-3p0-3p0---0-3-0-3-------|------------------------3-0--|


                        
|-------------------------------|
|-------------------------------|
|-------------------------0-2-3-|
|-(0)-0-3p0-3p0---0-3-0-3-------|


                               
|------------------------------|--------------------------------|
|------5---------------0-------|--------------------------------|
|-(3)----3-2-(2)-0-2-3---2-----|-------------------------0-2-3--|
|--------------------------3-0-|-(0)-0-3p0-3p0---0-3-0-3--------|


      
|----------------------------|-------------------------------|
|--------------------0-------|-------------------------------|
|-(3)--3-2-(2)-0-2-3---2-----|-------------------------0-2-3-|
|------------------------3-0-|-(0)-0-3p0-3p0---0-3-0-3-------|


         
|-------------------------------||
|------5---------------0--------||
|-(3)----3-2-(2)-0-2-3---2------||
|--------------------------3-0--||


 3rd Verse

|---------------------|-------------------------------|
|---------------------|-------5---------------0-------|
|-------------------3-|-(3)-3---3-2-(2)-0-2-3---2-----|
|-(0)-0-3p0-3p0-------|---------------------------3-0-||---------------------|----------------------------------|
|---------------------|-------5---------------0----------|
|-------------------3-|-(3)-3---3-2-(2)-0-2-3---2--------|
|-(0)-0-3p0-3p0-------|---------------------------3-0----||------------------------|-----------0---------------------|
|------------------------|-------0h2---------------0-------|
|----------------------3-|-(3)-3-------2-(2)-0-2-3---2-----|
|-(0)-0-3p0-3p0--0--0----|-----------------------------3-0-||------------------------|-------------------------------||
|------------------------|-------5---------------0-------||
|----------------------3-|-(3)-3---3-2-(2)-0-2-3---2-----||
|-(0)-0-3p0-3p0--0--0----|---------------------------3-0-||


   Chorus
  
||------------|-----------------|-----------|---------------------------|
||o-----------|-----------------|-----------|------------------0--------|
||o-5----3----|-----------------|-5----3----|------------0-2-3---2------|
||------------|-5-5-5--(5)--5-5-|-----------|-5-5-5--(5)-----------3-0--|


                                                

|-----------------|-----------------|----------|---------------||
|-----------------|-----------------|----------|---------------||
|-5-5-5-5-3-3-3-3-|-----------------|-1--------|-3------(3)----||
|-----------------|-5-5-5-5-5-5-5-5-|----------|------------0--||


              
|-------------------------------|----------------------------|
|-------------------------------|--------------------0-------|
|-------------------------0-2-3-|-(3)--3-2-(2)-0-2-3---2-----|
|-(0)-0-3p0-3p0---0-3-0-3-------|------------------------3-0-|


                       
|-----------------------------|----------------------------||
|-----------------------------|------------------0---------||
|-------------------------0-2-|-3--3-2-(2)-0-2-3---2-------||
|-(0)-0-3p0-3p0---0-3-0-3-----|----------------------3-0---||


          
|-------------------|-----------------------------|
|-------------------|-----5---------------0-------|
|-----------------3-|-3-3---3-2-(2)-0-2-3---2-----|
|-0-0-3p0-3p0-------|-------------------------3-0-|


|-------------------|--------------------------------|
|-------------------|-----5---------------0----------|
|-----------------3-|-3-3---3-2-(2)-0-2-3---2--------|
|-0-0-3p0-3p0-------|-------------------------3-0----|


                 
|------------------------|-----------0---------------------|
|------------------------|-------0h2---------------0-------|
|----------------------3-|-(3)-3-------2-(2)-0-2-3---2-----|
|-(0)-0-3p0-3p0--0--0----|-----------------------------3-0-|


                
|------------------------|--------------------------------||
|------------------------|-------5---------------0-------o||
|----------------------3-|-(3)-3---3-2-(2)-0-2-3---2-----o||
|-(0)-0-3p0-3p0--0--0----|---------------------------3-0--||


                  Guitar Solo
  

|---------------||--------------------|-----------------------------|
|---------------||--------------------|-----------------------------|
|-3-------(3)---||--------------------|----------0-2-3-(3)-2-0------|
|-------------0-||-(0)-0-3p0-3p0------|--0-3-0-3---------------3-0--|


|--------------------|----------------------------|------------------------|
|--------------------|----------------------------|------------------------|
|--------------------|----------0-2-3-(3)-2-0-----|------------------------|
|-(0)-0-3p0-3p0------|--0-3-0-3---------------3-0-|-(0)-0-3p0-3p0--0--0--0-|


|-------------------------------|------------------------|
|-------------------------------|------------------------|
|-------------0-2-3-(3)-2-0-----|------------------------|
|-(0)-0-3-0-3---------------3-0-|-(0)-0-3p0-3p0--0--0--0-|


|--------------------------------||
|--------------------------------||
|-------------0-2-3-(3)-2-0------||
|-(0)-0-3-0-3---------------3-0--|||-----------------|-----------------|-----------------|
|-----------------|-----------------|-----------------|
|-----------------|-----------------|-----------------|
|-0-0-0-0-2-2-2-2-|-3-3-3-3-5-5-5-5-|-0-0-0-0-2-2-2-2-||-----------------|---------------------|---------------------||
|-----------------|---------------------|---------------------||
|-----------------|---------------------|---------------------||
|-3-3-3-3-5-5-5-5-|-5-5-(5)-5-(5)-5-5-5-|-5-5-(5)-5-(5)-5-5-5-||


 Chorus
 
|-----------------|-----------------|
|-----------------|-----------------|
|-5-5-5-5-3-3-3-3-|-----------------|
|-----------------|-5-5-5-5-5-5-5-5-|


 
|-----------------|---------------------------|
|-----------------|-----------------0---------|
|-5-5-5-5-3-3-3-3-|-----------0-2-3---2-------|
|-----------------|-5-5-5-5-5-----------3-0---|


|-----------------|-----------------|------|
|-----------------|-----------------|------|
|-5-5-5-5-3-3-3-3-|-----------------|-1----|
|-----------------|-5-5-5-5-5-5-5-5-|------|


            

|----------|----------|--------||
|----------|----------|--------||
|-3--------|-5--------|-(5)----||
|----------|-0--------|-(0)----||


 Outro


|---------*|
|---------*|
|---------*|
|---------*|
comments
We did not receive enough feedback on this tab! Please rate:
1 2 3 4 5
I want to post or [tab]
guest
You may want to rate the tab now too:
select rating
Please do not post tabs as comments. Select "correction" instead!