Oops, an error
Loading. Please wait.

On With The Show Bass Tab

ver2
ver2

Whole song

More versions @911Tabs.com
104 views 6 this week
no commentswrite comment
1 2 3 4 5
please rate
Autoscroll
+/-
esc
set tempo
stop
Contributor
Difficulty
intermediate
WARNING: You are trying to view
                                    content from Ultimate-Guitar.com
                                    in an unauthorized application,
                                    which is prohibited.

                                    Please use an official Ultimate
                                    Guitar Tabs application for iPhone,
                                    iPad or Android to access legitimate
                                    chords, guitar, bass, and drum tabs
                                    from Ultimate-Guitar.com database.

                                    Type "ultimate guitar tabs" in Apple
                                    App Store's or Android Market's
                                    search to find the application.
-----------------------------------------------------------------------------
                                  
                 On With the Show - Motley Crue (BASS)
            
-----------------------------------------------------------------------------
Tabbed by: Scotto10

Tuning: tune all strings down one step

=============================================================================

Bass



F||-------|-------|-------|-------|-------|-------|-------|-------|-------|
C||-------|-------|-------|-------|-------|-------|-------|-------|-------|
G||-------|-------|-------|-------|-------|-------|-------|-------|-------|
D||-------|-------|-------|-------|-------|-------|-------|-------|-------|


-------|-------|-------|-------|-------|-------|-------|-------|-------|-------|
-------|-------|-------|-------|-------|-------|-------|-------|-------|-------|
-------|-------|-------|-------|-------|-------|-------|-------|-------|-------|
-------|-------|-------|-------|-------|-------|-------|-------|-------|-------|


          W                   Q    H.              Q    H.            
-------|-------------------|--------------------|--------------------|
-------|-------------------|--------------------|--------------------|
-------|-------------------|--------------------|--2----2------------|
-------|--5----------------|--2----2------------|--------------------|


  Q    H.              Q    H        Q       Q    H        Q     
--------------------|---------------------|---------------------|
--------------------|---------------------|---------------------|
--L-----------------|--7-------------7----|--6-------------6----|
--------------------|---------------------|---------------------|


  Q    H        Q       Q    H.              Q    Q    H         
---------------------|--------------------|---------------------|
---------------------|--------------------|---------------------|
--4-------------4----|--2-----------------|---------------------|
---------------------|--------------------|--5----5----5--------|


  E  E  E  E  E  E  E  E     Q    Q    Q    Q        E  E  E  E  E  E  E  E    
--------------------------|----------------------|----------------------------|
--------------------------|----------------------|--/9--9--9--9--9--9--9------|
--------------------------|--2----2----2----2----|------------------------9\--|
--2--1--2--1--2--1--2--1--|----------------------|----------------------------|


  Q    E  E  E  E  E  E     Q    E  E  E  E  E  E     Q    E  E  E  E  E  E   
-------------------------|-------------------------|-------------------------|
-------------------------|-------------------------|-------------------------|
--7----7--7--7--7--7--6--|--6----6--6--6--6--6-----|--4----4--4--4--4--4-----|
-------------------------|----------------------4--|----------------------4--|


  Q    E  E  E  E  E  E     Q    Q    E  E  E  E     E  E  E  E  E  E  E  E   
-------------------------|------------------------|--------------------------|
-------------------------|------------------------|--------------------------|
--2----2--2--2--2--2--2--|------------------------|--------------------------|
-------------------------|--5----5----5--5--5--5--|--2--1--2--1--2--1--2--1--|


  Q    Q    Q    Q       E  E  E  E  E  E  E  E     Q    E  E  E  E  E  E   
----------------------|--------------------------|-------------------------|
----------------------|--------------------------|-------------------------|
--2----2----2----2----|--2--2--2--2--2--2--2-----|--7----7--7--7--7--7--6--|
----------------------|-----------------------0--|-------------------------|


  Q    E  E  E  E  E  E     Q    E  E  E  E  E  E     Q    E  E  E  E  E  E   
-------------------------|-------------------------|-------------------------|
-------------------------|-------------------------|-------------------------|
--6----6--6--6--6--6-----|--4----4--4--4--4--4-----|--2----2--2--2--2--2--2--|
----------------------4--|----------------------4--|-------------------------|


  Q    Q    E  E  E  E     E  E  E  E  E  E  E  E     Q    Q    Q    Q     
------------------------|--------------------------|----------------------|
------------------------|--------------------------|----------------------|
------------------------|--------------------------|--2----2----2----2----|
--5----5----5--5--5--5--|--2--1--2--1--2--1--2--1--|----------------------|


   E  E  E  E  E  E  E  E     Q    E  E  Q    E  E     E  E  E  E  Q    E  E   
---------------------------|------------------------|-------------------------|
--/9--9--9--9--9--9--9-----|-------------9----------|--------------9----------|
---------------------------|--7-------7-------7-----|--6--6-----6-------6-----|
------------------------0--|------------------------|-------------------------|


  Q    E  E  Q    E  E     Q    E  E  Q    E  E     E  E  E  E  E  E  E  E   
------------------------|------------------------|--------------------------|
-------------6----------|-------------4----------|--------------------------|
--4-------4-------4-----|--2-------2-------2-----|--------------------------|
------------------------|------------------------|--5--5--5--5--5--5--4--4--|


  E  E  E  E  E  E  E  E     E  E  E  E  E  E   E  E   
--------------------------|---------------------------|
--------------------------|--------------------/9--9--|
--------------------4-----|--2--2--2--2--2--2---------|
--2--2--2--2--2--2-----2--|---------------------------|


  E  E  E  E  E  E  Q        Q    H        Q       Q    H        Q     
--------------------------|---------------------|---------------------|
--9--9--9--9--9--9--9\----|---------------------|---------------------|
--------------------------|--7-------------7----|--6-------------6----|
--------------------------|---------------------|---------------------|


  Q    H        Q       Q    H.              Q    Q    H         
---------------------|--------------------|---------------------|
---------------------|--------------------|---------------------|
--4-------------4----|--2-----------------|---------------------|
---------------------|--------------------|--5----5----5--------|


  Q    Q    H           Q    Q    H                 Q    H        Q     
---------------------|---------------------|-----|---------------------|
---------------------|---------------------|-----|---------------------|
---------------------|--2----2----2--------|-----|--7-------------7----|
--2----2----2--------|---------------------|-----|---------------------|


  Q    H        Q       Q    H        Q       Q    H.            
---------------------|---------------------|--------------------|
---------------------|---------------------|--------------------|
--6-------------6----|--4-------------4----|--2-----------------|
---------------------|---------------------|--------------------|


  Q    Q    H           E  E  E  E  E  E  E  E     Q    Q    Q    Q     
---------------------|--------------------------|----------------------|
---------------------|--------------------------|----------------------|
---------------------|--------------------------|--2----2----2----2----|
--5----5----5--------|--2--1--2--1--2--1--2--1--|----------------------|


   E  E  E  E  E  E  E  E     Q    E  E  E  E  E  E     Q    E  E  E  E  E  E   
---------------------------|-------------------------|-------------------------|
--/9--9--9--9--9--9--9-----|-------------------------|-------------------------|
---------------------------|--7----7--7--7--7--7--6--|--6----6--6--6--6--6-----|
------------------------0--|-------------------------|----------------------4--|


  Q    E  E  E  E  E  E     Q    E  E  E  E  E  E     Q    Q    E  E  E  E   
-------------------------|-------------------------|------------------------|
-------------------------|-------------------------|------------------------|
--4----4--4--4--4--4-----|--2----2--2--2--2--2--2--|------------------------|
----------------------4--|-------------------------|--5----5----5--5--5--5--|


  E  E  E  E  E  E  E  E     Q    Q    Q    Q        E  E  E  E  E  E  E  E   
--------------------------|----------------------|---------------------------|
--------------------------|----------------------|--/9--9--9--9--9--9--9-----|
--------------------------|--2----2----2----2----|---------------------------|
--2--1--2--1--2--1--2--1--|----------------------|------------------------0--|


  Q    E  E  E  E  E  E     Q    E  E  E  E  E  E     Q    E  E  E  E  E  E   
-------------------------|-------------------------|-------------------------|
-------------------------|-------------------------|-------------------------|
--7----7--7--7--7--7-----|--6----6--6--6--6--6-----|--4----4--4--4--4--4-----|
----------------------0--|----------------------4--|----------------------4--|


  Q    E  E  E  E  E  E     Q    Q    E  E  E  E     E  E  E  E  E  E  E  E   
-------------------------|------------------------|--------------------------|
-------------------------|------------------------|--------------------------|
--2----2--2--2--2--2--2--|------------------------|--------------------------|
-------------------------|--5----5----5--L--5--5--|--2--1--2--1--2--1--2--1--|


  Q    Q    Q    Q        E  E  E  E  E  E  E  E     Q    E  E  Q    E  E   
----------------------|---------------------------|------------------------|
----------------------|--/9--9--9--9--9--9--9-----|-------------9----------|
--2----2----2----2----|---------------------------|--7-------7-------7-----|
----------------------|------------------------0--|------------------------|


  E  E  E  E  Q    E  E     Q    E  E  Q    E  E     Q    E  E  Q    E  E   
-------------------------|------------------------|------------------------|
--------------9----------|-------------6----------|-------------4----------|
--6--L-----6-------6-----|--4-------4-------4-----|--2-------2-------2-----|
-------------------------|------------------------|------------------------|


  E  E  E  E  E  E  E  E     E  E  E  E  E  E  E  E   
--------------------------|--------------------------|
--------------------------|--------------------------|
--------------------------|--------------------4-----|
--5--5--5--5--5--5--4--4--|--2--2--2--2--2--2-----2--|


  E  E  E  E  E   E  E  E     E  E  E  E  E  E  E  E     Q    E  E  Q    E  E   
---------------------------|--------------------------|------------------------|
-----------------/9--9--9--|--9--9--9--9--9--9--9-----|-------------9----------|
--2--2--2--2--2------------|--------------------------|--7-------7-------7-----|
---------------------------|-----------------------0--|------------------------|


  E  E  E  E  Q    E  E     Q    E  E  Q    E  E     Q    E  E  Q    E  E   
-------------------------|------------------------|------------------------|
--------------9----------|-------------6----------|-------------4----------|
--6--L-----6-------6-----|--4-------4-------4-----|--2-------2-------2-----|
-------------------------|------------------------|------------------------|


  E  E  E  E  E  E  E  E     E  E  E  E  E  E  E  E   
--------------------------|--------------------------|
--------------------------|--------------------------|
--------------------------|--------------------4-----|
--5--5--5--5--5--5--4--4--|--2--2--2--2--2--2-----2--|


  E  E  E  E  E  E    E   E      E   E   E   S  S  E   E   E  E           
-----------------------------|--------------14-15-16--16--16-----|-------|
-----------------------------|-----------------------------------|-------|
--2--2--2--2--2--2s--14--14--|--14--14--14-----------------------|-------|
-----------------------------|-----------------------------------|-------|


                                                          H.           Q     
-------|-------|-------|-------|-------|-------|-------|--------------------|
-------|-------|-------|-------|-------|-------|-------|--------------------|
-------|-------|-------|-------|-------|-------|-------|--7-----------------|
-------|-------|-------|-------|-------|-------|-------|--------------------|


                  H.            Q        Q    Q    Q    Q     
-------|-------|----------------------|----------------------|
-------|-------|----------------------|----------------------|
-------|-------|----------------------|----------------------|
-------|-------|---------------12\----|--5----5----5---------|


  E  E  E  E  E  E  E  E     Q    Q    Q    Q        E  E  E  E  E  E  E  E   
--------------------------|----------------------|---------------------------|
--------------------------|----------------------|--/9--9--9--9--9--9--9-----|
--------------------------|--2----2----2----2----|---------------------------|
--2--1--2--1--2--1--2--1--|----------------------|------------------------0--|


  Q    E  E  E  E  E  E     Q    E  E  E  E  E  E     Q    E  E  E  E  E  E   
-------------------------|-------------------------|-------------------------|
-------------------------|-------------------------|-------------------------|
--7----7--7--7--7--7--6--|--6----6--6--6--6--6-----|--4----4--4--4--4--4-----|
-------------------------|----------------------4--|----------------------4--|


  Q    E  E  E  E  E  E     Q    Q    E  E  E  E     E  E  E  E  E  E  E  E   
-------------------------|------------------------|--------------------------|
-------------------------|------------------------|--------------------------|
--2----2--2--2--2--2--2--|------------------------|--------------------------|
-------------------------|--5----5----5--5--5--5--|--2--1--2--1--2--1--2--1--|


  Q    Q    Q    Q       E  E  E  E  E  E  E  E     Q    E  E  E  E  E  E   
----------------------|--------------------------|-------------------------|
----------------------|--------------------------|-------------------------|
--2----2----2----2----|--2--2--2--2--2--2--2-----|--7----7--7--7--7--7--6--|
----------------------|-----------------------0--|-------------------------|


  Q    E  E  E  E  E  E     Q    E  E  E  E  E  E     Q    E  E  E  E  E  E   
-------------------------|-------------------------|-------------------------|
-------------------------|-------------------------|-------------------------|
--6----6--6--6--6--6-----|--4----4--4--4--4--4-----|--2----2--2--2--2--2--2--|
----------------------4--|----------------------4--|-------------------------|


  Q    Q    E  E  E  E     E  E  E  E  E  E  E  E     Q    Q    Q    Q     
------------------------|--------------------------|----------------------|
------------------------|--------------------------|----------------------|
------------------------|--------------------------|--2----2----2----2----|
--5----5----5--5--5--5--|--2--1--2--1--2--1--2--1--|----------------------|


   E  E  E  E  E  E  E  E     Q    E  E  E  E  E  E   
---------------------------|-------------------------|
--/9--9--9--9--9--9--9-----|-------------9-----------|
---------------------------|--7----7--7-----7--7--7--|
------------------------0--|-------------------------|


  E  E  E  E  E  E  E  E     E  E  E  E  E  E  E  E   
--------------------------|--------------------------|
--------------9-----------|--------------6-----------|
--6--6--6--6-----6--6--6--|--4--4--4--4-----4--4--4--|
--------------------------|--------------------------|


  E  E  E  E  E  E  E  E     E  E  E  E  E  E  E  E   
--------------------------|--------------------------|
--------------4-----------|--------------------------|
--2--2--2--2-----2--2--2--|--------------------------|
--------------------------|--5--5--5--5--5--5--5--4--|


  E  E  E  E  E  E  E  E     Q    E  S S Q    E  E    
--------------------------|--------------------------|
--------------------------|--------------------------|
--------------------------|--2----2--2---2----2--2s--|
--2--1--2--1--2--1--2--1--|--------------------------|


   Q     E   S S  Q     E   S  S     S  S  E   E   E   E   E   E   E   
------------------------------14-|---L-15-16--16--16--16--16--16\-----|
---------------------------------|------------------------------------|
--14----14--14---14----14--14----|------------------------------------|
---------------------------------|------------------------------------|


  W                   W                   E  E  H.             
-------------------|-------------------|---------------------||
-------------------|-------------------|---------------------||
--7----------------|--L----------------|--7--7---------------||
-------------------|-------------------|---------------------||




Duration Legend
---------------
W - whole
H - half
Q - quarter
E - 8th
S - 16th
T - 32nd
X - 64th
. - note dotted
|-n-|  - n-tuplets


Tablature Legend
----------------
L - tied note
x - dead note
g - grace note
(n) - ghost note
> - accentuded note
NH - natural harmonic
AH - artificial harmonic
TH - tapped harmonic
SH - semi harmonic
PH - pitch harmonic
h - hammer on
p - pull off
b - bend
br - bendRelease
pb - preBend
pbr - preBendRelease
brb - bendReleaseBend
\n/ - tremolo bar dip
\n - tremolo bar dive
-/n - tremolo bar Release up
/n\ - tremolo bar inverted dip
/n - tremolo bar return
-\n - tremolo bar Release down
S - shift slide
s - legato slide
/ -  slide into from below or out of upwards
\ -  slide into from above or out of downwards
~ - vibrato
W - wide vibrato
tr - trill
TP - tremolo picking
T - tapping
S - slap
P - pop
< - fade in
^ - brush up
v - brush down
comments
We did not receive enough feedback on this tab! Please rate:
1 2 3 4 5
I want to post or [tab]
guest
You may want to rate the tab now too:
select rating
Please do not post tabs as comments. Select "correction" instead!