Oops, an error
Loading. Please wait.

On With The Show Tab

ver2
ver2

Whole song

Interactive

More versions @911Tabs.com
1,169 views 15 this week
no commentswrite comment
1 2 3 4 5
excellent!
x 2
Autoscroll
+/-
esc
set tempo
stop
Contributor
Difficulty
intermediate
Hey! There's an official Ultimate Guitar app which is ideal
for learning songs when you're away from computer. Get the app
WARNING: You are trying to view
                                    content from Ultimate-Guitar.com
                                    in an unauthorized application,
                                    which is prohibited.

                                    Please use an official Ultimate
                                    Guitar Tabs application for iPhone,
                                    iPad or Android to access legitimate
                                    chords, guitar, bass, and drum tabs
                                    from Ultimate-Guitar.com database.

                                    Type "ultimate guitar tabs" in Apple
                                    App Store's or Android Market's
                                    search to find the application.
-----------------------------------------------------------------------------
                                  
                 On With the Show - Motley Crue (GUITAR)
            
-----------------------------------------------------------------------------
Tabbed by: Scotto10

Tuning: tune all strings down one step

=============================================================================

Guitar 1



     PM PM PM PM                  PM PM PM PM         PM PM  
     E  E  E  E   E   E  E  E     E  E  E  E   E   E  E  E   
D||----------------------------|----------------------------|
A||--------------10p--9--------|--------------10p--9--------|
F||--------9-------------9-----|--------9-------------9-----|
C||-----9-----9-------------9--|-----9-----9-------------9--|
G||--7-------------------------|--6-------------------------|
D||----------------------------|----------------------------|


  PM PM PM PM       PM PM    PM PM PM PM          PM PM  
  E  E  E  E  E  E  E  E     E  E  E  E  S  S  E  E  E   
--------------------------|-----------------------------|
--------------5-----------|--------------4h-5p-4--------|
--------6--------6-----6--|--------4--------------4-----|
-----6-----6--------6-----|-----4-----4--------------4--|
--4-----------------------|--2--------------------------|
--------------------------|-----------------------------|


  PM PM PM PM          PM PM    PM PM PM PM       PM PM  
  E  E  E  E  S  S  E  E  E     E  E  E  E  E  E  E  E   
-----------------------------|--------------------------|
--------------2h-3p-2--------|--------------2-----------|
--------2--------------2-----|-----------------2-----2--|
-----2-----2--------------2--|--------4-----------4-----|
--0--------------------------|-----4-----4--------------|
-----------------------------|--2-----------------------|


  PM PM PM PM          PM PM    PM PM PM PM          PM PM  
  E  E  E  E  S  S  E  E  E     E  E  E  E  S  S  E  E  E   
-----------------------------|-----------------------------|
--------------4h-5p-4--------|--------------4h-5p-4--------|
--------4--------------4-----|--------4--------------4-----|
-----4-----4--------------4--|-----4-----4--------------4--|
--2--------------------------|--2--------------------------|
-----------------------------|-----------------------------|


  PM PM PM PM           PM PM    PM PM PM PM         PM PM  
  E  E  E  E  S   S  E  E  E     E  E  E  E   E   E  E  E   
------------------------------|----------------------------|
--------------9h-10p-9--------|--------------10p--9--------|
--------9---------------9-----|--------9-------------9-----|
-----9-----9---------------9--|-----9-----9-------------9--|
--7---------------------------|--6-------------------------|
------------------------------|----------------------------|


  PM PM PM PM    PM PM PM    PM PM PM PM          PM PM  
  E  E  E  E  E  E  E  E     E  E  E  E  S  S  E  E  E   
--------------------------|-----------------------------|
--------------5-----------|--------------4h-5p-4--------|
--------6--------6-----6--|--------4--------------4-----|
-----6-----6--------6-----|-----4-----4--------------4--|
--4-----------------------|--2--------------------------|
--------------------------|-----------------------------|


  PM PM PM PM          PM PM    PM PM PM PM              
  E  E  E  E  S  S  E  E  E     E  E  E  E  E  E  E  E   
-----------------------------|--------------------------|
--------------2h-3p-2--------|--------------2-----------|
--------2--------------2-----|-----------------2-----2--|
-----2-----2--------------2--|--------4-----------4-----|
--0--------------------------|-----4-----4--------------|
-----------------------------|--2-----------------------|


  PM PM PM PM          PM PM    PM PM PM PM          PM PM  
  E  E  E  E  S  S  E  E  E     E  E  E  E  S  S  E  E  E   
-----------------------------|-----------------------------|
--------------4h-5p-4--------|--------------4h-5p-4--------|
--------4--------------4-----|--------4--------------4-----|
-----4-----4--------------4--|-----4-----4--------------4--|
--2--------------------------|--2--------------------------|
-----------------------------|-----------------------------|


  PM PM PM PM             PM PM    PM PM PM PM         PM PM  
              |----3---|                                      
  E  E  E  E  E    E   E  E  E     E  E  E  E   E   E  E  E   
--------------------------------|----------------------------|
--------------9h--10p--9--------|--------------10p--9--------|
--------9-----------------9-----|--------9-------------9-----|
-----9-----9-----------------9--|-----9-----9-------------9--|
--7-----------------------------|--6-------------------------|
--------------------------------|----------------------------|


  PM PM PM PM                                                      
  E  E  E  E  E  E  E  E     W                   W                 
--------------------------|-------------------|-------------------|
--------------5-----------|-------------------|-------------------|
--------6--------6-----6--|--4----------------|--2----------------|
-----6-----6--------6-----|--4----------------|--2----------------|
--4-----------------------|--2----------------|--0----------------|
--------------------------|-------------------|-------------------|


  W                   H.           Q         H.             E  E   
-------------------|---------------------|------------------------|
-------------------|---------------------|------------------------|
-------------------|--4------------------|------------------------|
--4----------------|--4------------------|------------------------|
--4----------------|--2------------2s----|--14~-------------L-----|
--2----------------|---------------------|------------------------|


  PM PM PM PM         PM PM    PM PM PM PM         PM PM  
  E  E  E  E   E   E  E  E     E  E  E  E   E   E  E  E   
----------------------------|----------------------------|
--------------10p--9--------|--------------10p--9--------|
--------9-------------9-----|--------9-------------9-----|
-----9-----9-------------9--|-----9-----9-------------9--|
--7-------------------------|--6-------------------------|
----------------------------|----------------------------|


  PM PM PM PM                                                      
  E  E  E  E  E  E  E  E     W                   W                 
--------------------------|-------------------|-------------------|
--------------5-----------|-------------------|-------------------|
--------6--------6-----6--|--4----------------|--2----------------|
-----6-----6--------6-----|--4----------------|--2----------------|
--4-----------------------|--2----------------|--0----------------|
--------------------------|-------------------|-------------------|


  E   E  E  E  E   E  E  E     Q     H.               E    Q.       H         
----------------------------|----------------------|-------------------------|
----------------------------|----------------------|-------------------------|
----------------------------|----------------------|-------------------------|
----------------------------|----------------------|-------------------------|
------------1--2p--1-----1--|--2b----L~------------|--2s--14~-------L--------|
--2p--1--2------------2-----|----------------------|-------------------------|


       PM PM PM                  PM PM PM                  PM PM PM           
  Q    E  E  E  E  E  E     Q    E  E  E  E  E  E     Q    E  E  E  E  E  E   
-------------------------|-------------------------|-------------------------|
-------------------------|-------------------------|-------------------------|
-------------------------|-------------------------|-------------------------|
--9-------------9-----9--|--9-------------9-----6--|--6-------------6-----4--|
--7----7--7--7--7-----7--|--6----6--6--6--6-----4--|--4----4--4--4--4-----2--|
-------------------------|-------------------------|-------------------------|


       PM PM                                                                
  Q    E  E  E  E  E  E     H.           Q       E   E  E  E  E   E  E  E   
-------------------------|--------------------|----------------------------|
-------------------------|--------------------|----------------------------|
-------------------------|--2------------2----|----------------------------|
--L----------------------|--2------------2----|----------------------------|
--L----2--2--2--2--2--0--|--0------------0----|------------1--2p--1-----1--|
-------------------------|--------------------|--2p--1--2------------2-----|


                                                         PM PM PM           
  Q     H.               E    Q.        H           Q    E  E  E  E  E  E   
----------------------|--------------------------|-------------------------|
----------------------|--------------------------|-------------------------|
----------------------|--------------------------|-------------------------|
----------------------|--------------------------|--9-------------9-----9--|
--2b----L~------------|--2s--14b~-------L--------|--7----7--7--7--7-----7--|
----------------------|--------------------------|-------------------------|


       PM PM PM                  PM PM PM                  PM PM              
  Q    E  E  E  E  E  E     Q    E  E  E  E  E  E     Q    E  E  E  E  E  E   
-------------------------|-------------------------|-------------------------|
-------------------------|-------------------------|-------------------------|
-------------------------|-------------------------|-------------------------|
--9-------------9-----6--|--6-------------6-----4--|--L----------------------|
--6----6--6--6--6-----4--|--4----4--4--4--4-----2--|--L----2--2--2--2--2--0--|
-------------------------|-------------------------|-------------------------|


  H.           Q       E   E  E  E  E   E  E  E     Q     H.             
--------------------|----------------------------|----------------------|
--------------------|----------------------------|----------------------|
--2------------2----|----------------------------|----------------------|
--2------------2----|----------------------------|----------------------|
--0------------0----|------------1--2p--1-----1--|--2b----L~------------|
--------------------|--2p--1--2------------2-----|----------------------|


   H         Q.      S  S    Q.      S  S Q.      S  S  
--------------------------|----------------------------|
-------------7b------7p-5-|--7b------7p-5-7b------7p-5-|
--------------------------|----------------------------|
--------------------------|----------------------------|
--14~---------------------|----------------------------|
--------------------------|----------------------------|


    SH                                                                       
    H         E  S E  S E     E  E  Q    Q.       E     H.           E   E   
---------------------------|-------------------------|----------------------|
---------------------------|-------------------------|----------------------|
--<>6~--------4------------|-------------------------|----------------------|
-------------------6----4--|--6--4--2----4br------2--|---------------4s--2--|
---------------------------|-------------------------|--4------------4s--2--|
---------------------------|-------------------------|----------------------|


  S   S  S  S S   S  S  S S   S  S  S S   S  S  S  
--9h-12p-9----------------------------------------|
-----------12-9h-12p-9-12-------------------------|
--------------------------9h-11p-9----------------|
-----------------------------------11-9h-11p-9----|
-----------------------------------------------11-|
--------------------------------------------------|


  S   S  S S E.    S H              S  S  S S  S  S S S S  S  S S  S  S S S  
---------------------------------|------------------------------------------|
---------------------------------|------------------------------------------|
---------------------------------|--4h-6p-4-4h-6p-4-6---6h-8p-6-6h-8p-6-8---|
---------------------------------|------------------------------------------|
--9h-11p-9-7-9br---7-9brb--------|------------------------------------------|
---------------------------------|------------------------------------------|


                                      PM PM PM PM  PM  PM PM PM  
  S  S  S  S S  S  S  S  H            E  E  E  E   E   E  E  E   
-----------------------------------|----------------------------|
-----------------------------------|--------------10p--9--------|
--8h-9p-8h-9-8h-9p-8h-9-11b--------|--------9-------------9-----|
-----------------------------------|-----9-----9-------------9--|
-----------------------------------|--7-------------------------|
-----------------------------------|----------------------------|


  PM PM PM PM         PM PM    PM PM PM PM PM PM PM PM  
  E  E  E  E   E   E  E  E     E  E  E  E  E  E  E  E   
----------------------------|--------------------------|
--------------10p--9--------|--------------5-----------|
--------9-------------9-----|--------6--------6-----6--|
-----9-----9-------------9--|-----6-----6--------6-----|
--6-------------------------|--4-----------------------|
----------------------------|--------------------------|


  PM PM PM PM          PM PM                                          
  E  E  E  E  S  S  E  E  E     W                   W                 
-----------------------------|-------------------|-------------------|
--------------4h-5p-4--------|-------------------|-------------------|
--------4--------------4-----|--2----------------|-------------------|
-----4-----4--------------4--|--2----------------|--4----------------|
--2--------------------------|--0----------------|--4----------------|
-----------------------------|-------------------|--2----------------|


                                                PM PM PM PM         PM PM  
  H        E  Q    E       W                    E  E  E  E   E   E  E  E   
-----------------------|---------------------|----------------------------|
-----------------------|---------------------|--------------10p--9--------|
-----------------------|---------------------|--------9-------------9-----|
--4--------L-----------|---------------------|-----9-----9-------------9--|
--2--------L--2----Ls--|--14~----------------|--7-------------------------|
-----------------------|---------------------|----------------------------|


  PM PM PM PM         PM PM    PM PM PM PM                                  
  E  E  E  E   E   E  E  E     E  E  E  E  E  E  E  E     W                 
----------------------------|--------------------------|-------------------|
--------------10p--9--------|--------------5-----------|-------------------|
--------9-------------9-----|--------6--------6-----6--|--4----------------|
-----9-----9-------------9--|-----6-----6--------6-----|--4----------------|
--6-------------------------|--4-----------------------|--2----------------|
----------------------------|--------------------------|-------------------|


  W                   E   E  E  E  E   E  E  E     H.            E   E    
-------------------|----------------------------|------------------------|
-------------------|----------------------------|------------------------|
--2----------------|----------------------------|------------------------|
--2----------------|----------------------------|------------------------|
--0----------------|------------1--2p--1-----1--|--2b------------L~--2s--|
-------------------|--2p--1--2------------2-----|------------------------|


                             PM PM PM                  PM PM PM           
   W                    Q    E  E  E  E  E  E     Q    E  E  E  E  E  E   
---------------------|-------------------------|-------------------------|
---------------------|-------------------------|-------------------------|
---------------------|-------------------------|-------------------------|
---------------------|--9-------------9-----9--|--9-------------9-----6--|
--14~----------------|--7----7--7--7--7-----7--|--6----6--6--6--6-----4--|
---------------------|-------------------------|-------------------------|


       PM PM PM                  PM PM                                   
  Q    E  E  E  E  E  E     Q    E  E  E  E  E  E     H.           Q     
-------------------------|-------------------------|--------------------|
-------------------------|-------------------------|--------------------|
-------------------------|-------------------------|--2------------2----|
--6-------------6-----4--|--L----------------------|--2------------2----|
--4----4--4--4--4-----2--|--L----2--2--2--2--2--0--|--0------------0----|
-------------------------|-------------------------|--------------------|


  E   E  E  E  E   E  E  E     Q     H         Q     
----------------------------|-----------------------|
----------------------------|-----------------------|
----------------------------|-----------------------|
----------------------------|-----------------------|
------------1--2p--1-----1--|--2b----L~--------2----|
--2p--1--2------------2-----|-----------------------|


                        PM         PM PM PM                  PM PM PM           
  E    H           Q    E     Q    E  E  E  E  E  E     Q    E  E  E  E  E  E   
---------------------------|-------------------------|-------------------------|
---------------------------|-------------------------|-------------------------|
---------------------------|-------------------------|-------------------------|
---------------------------|--9-------------9-----9--|--9-------------9-----6--|
--2s--14b~---------L-------|--7----7--7--7--7-----7--|--6----6--6--6--6-----4--|
------------------------0--|-------------------------|-------------------------|


       PM PM PM                  PM PM                                    
  Q    E  E  E  E  E  E     Q    E  E  E  E  E  E     H.           E  E   
-------------------------|-------------------------|---------------------|
-------------------------|-------------------------|---------------------|
-------------------------|-------------------------|--2------------2-----|
--6-------------6-----4--|--L----------------------|--2------------2-----|
--4----4--4--4--4-----2--|--L----2--2--2--2--2--0--|--0------------0-----|
-------------------------|-------------------------|------------------0--|


  E   E  E  E  E   E  E  E     H           H            E    Q.       H         
----------------------------|------------------------|-------------------------|
----------------------------|------------------------|-------------------------|
----------------------------|------------------------|-------------------------|
----------------------------|------------------------|-------------------------|
------------1--2p--1-----1--|--2brb--------L~--------|--2s--14~-------L--------|
--2p--1--2------------2-----|------------------------|-------------------------|


                                                             |---3---|   
  H        E  E.  E.     H        E  E.  E.     H.           E   E   E   
----------------------|----------------------|--------------------------|
----------------------|----------------------|--------------------------|
----------------------|----------------------|--------------------------|
------------------6---|------------------4---|--------------------------|
--7--------7--9-------|--6--------6--7-------|--4------------4s--6s--4--|
----------------------|----------------------|--------------------------|


           \1/                                                          
  H        H           S   S  S  S S   S  S  S S   S  S  S S   S  S  S  
--------------------|--9h-12p-9----------------------------------------|
--------------------|-----------12-9h-12p-9----------------------------|
--------------------|-----------------------11-9h-11p-9----------------|
--------------------|-----------------------------------11-9h-11p-9----|
--2--------4--------|-----------------------------------------------11-|
--------------------|--------------------------------------------------|


  S   S  S S E   H         E      S  S  S S  S  S S S S  S  S S  S  S S S  
-------------------------------|------------------------------------------|
-------------------------------|------------------------------------------|
-------------------------------|--4h-6p-4-4h-6p-4-6---6h-8p-6-6h-8p-6-8---|
-------------------------------|------------------------------------------|
--9h-11p-9-7-9b--9b--------L\--|------------------------------------------|
-------------------------------|------------------------------------------|


  S  S  S  S S  S  S  S Q.      S  S    Q.      S  S Q.      S  S  
-------------------------------------|----------------------------|
--4h-5p-4h-5-4h-5p-4h-5-7b------7p-5-|--7b------7p-5-7b------7p-5-|
-------------------------------------|----------------------------|
-------------------------------------|----------------------------|
-------------------------------------|----------------------------|
-------------------------------------|----------------------------|


    SH                                     SH                                  
    H         E  S E  S E     E  E  Q      Q.       E     W                    
---------------------------|---------------------------|----------------------|
---------------------------|---------------------------|----------------------|
--<>6~--------4------------|---------------------------|----------------------|
-------------------6----4--|--6--4--2----<>4br------2--|--4brb----------------|
---------------------------|---------------------------|----------------------|
---------------------------|---------------------------|----------------------|


  S S   S  S S   S  S  S S   S  S  S S   S  S  S    Q     H         Q      
--9-9h-12p-9-------------------------------------|------------------------|
-------------9h-12p-9----------------------------|------------------------|
----------------------11-9h-11p-9----------------|------------------------|
----------------------------------11-9h-11p-9----|------------------------|
----------------------------------------------11-|--9b----9b--------L\----|
-------------------------------------------------|------------------------|


  S  S  S S  S  S S S S  S  S S  S  S S S    S  S  S  S S  S  S  S  H          
------------------------------------------|-----------------------------------|
------------------------------------------|-----------------------------------|
--4h-6p-4-4h-6p-4-6---6h-8p-6-6h-8p-6-8---|--8h-9p-8h-9-8h-9p-8h-9-11b--------|
------------------------------------------|-----------------------------------|
------------------------------------------|-----------------------------------|
------------------------------------------|-----------------------------------|


  PM PM PM PM         PM PM    PM PM PM PM         PM PM  
  E  E  E  E   E   E  E  E     E  E  E  E   E   E  E  E   
----------------------------|----------------------------|
--------------10p--9--------|--------------10p--9--------|
--------9-------------9-----|--------9-------------9-----|
-----9-----9-------------9--|-----9-----9-------------9--|
--7-------------------------|--6-------------------------|
----------------------------|----------------------------|


  PM PM PM PM    PM PM PM    PM PM PM PM          PM PM  
  E  E  E  E  E  E  E  E     E  E  E  E  S  S  E  E  E   
--------------------------|-----------------------------|
--------------5-----------|--------------4h-5p-4--------|
--------6--------6-----6--|--------4--------------4-----|
-----6-----6--------6-----|-----4-----4--------------4--|
--4-----------------------|--2--------------------------|
--------------------------|-----------------------------|


  PM PM PM PM          PM PM    PM PM PM PM PM PM PM PM  
  E  E  E  E  S  S  E  E  E     E  E  E  E  E  E  E  E   
-----------------------------|--------------------------|
--------------2h-3p-2--------|--------------2-----------|
--------2--------------2-----|-----------------2-----2--|
-----2-----2--------------2--|--------4-----------4-----|
--0--------------------------|-----4-----4--------------|
-----------------------------|--2-----------------------|


  PM PM PM PM          PM PM    PM PM PM PM          PM PM  
  E  E  E  E  S  S  E  E  E     E  E  E  E  S  S  E  E  E   
-----------------------------|-----------------------------|
--------------4h-5p-4--------|--------------4h-5p-4--------|
--------4--------------4-----|--------4--------------4-----|
-----4-----4--------------4--|-----4-----4--------------4--|
--2--------------------------|--2--------------------------|
-----------------------------|-----------------------------|


  PM PM PM PM           PM PM    PM PM PM PM                
  E  E  E  E  S   S  E  E  E     E  E  E  E   E   E  E  E   
------------------------------|----------------------------|
--------------9h-10p-9--------|--------------10p--9--------|
--------9---------------9-----|--------9-------------9-----|
-----9-----9---------------9--|-----9-----9-------------9--|
--7---------------------------|--6-------------------------|
------------------------------|----------------------------|


  PM PM PM PM                                                          
  E  E  E  E  E  E  E  E     H          H            W                 
--------------------------|-----------------------|-------------------|
--------------5-----------|-----------------------|-------------------|
--------6--------6-----6--|--4--------------------|--2----------------|
-----6-----6--------6-----|--4--------------------|--2----------------|
--4-----------------------|--2--------------------|--0----------------|
--------------------------|-----------/12\--------|-------------------|


  E   E  E  E  E   E  E  E     H           H          
----------------------------|------------------------|
----------------------------|------------------------|
----------------------------|------------------------|
----------------------------|------------------------|
------------1--2p--1-----1--|--2brb--------L~--------|
--2p--1--2------------2-----|------------------------|


                                  PM PM PM                  PM PM PM           
  E    Q.        H           Q    E  E  E  E  E  E     Q    E  E  E  E  E  E   
--------------------------|-------------------------|-------------------------|
--------------------------|-------------------------|-------------------------|
--------------------------|-------------------------|-------------------------|
--------------------------|--9-------------9-----9--|--9-------------9-----6--|
--2s--14b~-------L--------|--7----7--7--7--7-----7--|--6----6--6--6--6-----4--|
--------------------------|-------------------------|-------------------------|


       PM PM PM                  PM PM                                    
  Q    E  E  E  E  E  E     Q    E  E  E  E  E  E     H.           E  E   
-------------------------|-------------------------|---------------------|
-------------------------|-------------------------|---------------------|
-------------------------|-------------------------|--2------------2-----|
--6-------------6-----4--|--L----------------------|--2------------2-----|
--4----4--4--4--4-----2--|--L----2--2--2--2--2--0--|--0------------0-----|
-------------------------|-------------------------|------------------0--|


  E   E  E  E  E   E  E  E     H           H          
----------------------------|------------------------|
----------------------------|------------------------|
----------------------------|------------------------|
----------------------------|------------------------|
------------1--2p--1-----1--|--2brb--------L~--------|
--2p--1--2------------2-----|------------------------|


                        PM         PM PM PM                  PM PM PM           
  E    H           Q    E     Q    E  E  E  E  E  E     Q    E  E  E  E  E  E   
---------------------------|-------------------------|-------------------------|
---------------------------|-------------------------|-------------------------|
---------------------------|-------------------------|-------------------------|
---------------------------|--9-------------9-----9--|--9-------------9-----6--|
--2s--14b~---------L-------|--7----7--7--7--7-----7--|--6----6--6--6--6-----4--|
------------------------0--|-------------------------|-------------------------|


       PM PM PM                  PM PM                                    
  Q    E  E  E  E  E  E     Q    E  E  E  E  E  E     H.           E  E   
-------------------------|-------------------------|---------------------|
-------------------------|-------------------------|---------------------|
-------------------------|-------------------------|--2------------2-----|
--6-------------6-----4--|--L----------------------|--2------------2-----|
--4----4--4--4--4-----2--|--L----2--2--2--2--2--0--|--0------------0-----|
-------------------------|-------------------------|------------------0--|


  E   E  E  E  E   E  E  E     H           H          
----------------------------|------------------------|
----------------------------|------------------------|
----------------------------|------------------------|
----------------------------|------------------------|
------------1--2p--1-----1--|--2brb--------L~--------|
--2p--1--2------------2-----|------------------------|


                        PM         PM PM PM                  PM PM PM           
  E    H           Q    E     Q    E  E  E  E  E  E     Q    E  E  E  E  E  E   
---------------------------|-------------------------|-------------------------|
---------------------------|-------------------------|-------------------------|
---------------------------|-------------------------|-------------------------|
---------------------------|--9-------------9-----9--|--9-------------9-----6--|
--2s--14b~---------L-------|--7----7--7--7--7-----7--|--6----6--6--6--6-----4--|
------------------------0--|-------------------------|-------------------------|


       PM PM PM                  PM PM                                    
  Q    E  E  E  E  E  E     Q    E  E  E  E  E  E     H.           E  E   
-------------------------|-------------------------|---------------------|
-------------------------|-------------------------|---------------------|
-------------------------|-------------------------|--2------------2-----|
--6-------------6-----4--|--L----------------------|--2------------2-----|
--4----4--4--4--4-----2--|--L----2--2--2--2--2--0--|--0------------0-----|
-------------------------|-------------------------|------------------0--|


  E   E  E  E  E   E  E  E     W                   Q    Q    Q    Q     
----------------------------|-------------------|----------------------|
----------------------------|-------------------|----------------------|
----------------------------|--4----------------|--4----4----4----4----|
----------------------------|--4----------------|--4----4----4----4----|
------------1--2p--1-----1--|--2----------------|--2----2----2----2----|
--2p--1--2------------2-----|-------------------|----------------------|


  Q    Q    Q    Q       W                   W                 
----------------------|-------------------|-------------------|
----------------------|-------------------|-------------------|
--4----4----4----4----|-------------------|-------------------|
--4----4----4----4----|--9----------------|--L----------------|
--2----2----2----2----|--7----------------|--L----------------|
----------------------|--0----------------|--L----------------|


  E  E  H.             
---------------------||
---------------------||
---------------------||
--9--9---------------||
--7--7---------------||
--0--0---------------||




Duration Legend
---------------
W - whole
H - half
Q - quarter
E - 8th
S - 16th
T - 32nd
X - 64th
. - note dotted
|-n-|  - n-tuplets


Tablature Legend
----------------
L - tied note
x - dead note
g - grace note
(n) - ghost note
> - accentuded note
NH - natural harmonic
AH - artificial harmonic
TH - tapped harmonic
SH - semi harmonic
PH - pitch harmonic
h - hammer on
p - pull off
b - bend
br - bendRelease
pb - preBend
pbr - preBendRelease
brb - bendReleaseBend
\n/ - tremolo bar dip
\n - tremolo bar dive
-/n - tremolo bar Release up
/n\ - tremolo bar inverted dip
/n - tremolo bar return
-\n - tremolo bar Release down
S - shift slide
s - legato slide
/ -  slide into from below or out of upwards
\ -  slide into from above or out of downwards
~ - vibrato
W - wide vibrato
tr - trill
TP - tremolo picking
T - tapping
S - slap
P - pop
< - fade in
^ - brush up
v - brush down
comments
We did not receive enough feedback on this tab! Please rate:
print report bad tab
1 2 3 4 5
I want to post or [tab]
guest
You may want to rate the tab now too:
select rating
Please do not post tabs as comments. Select "correction" instead!