Oops, an error
Loading. Please wait.

Porno Star Tab

2,046 views 12 this week
1 commentread comment
1 2 3 4 5
excellent!
x 4
Autoscroll
+/-
esc
set tempo
stop
Contributor
WARNING: You are trying to view
                                    content from Ultimate-Guitar.com
                                    in an unauthorized application,
                                    which is prohibited.

                                    Please use an official Ultimate
                                    Guitar Tabs application for iPhone,
                                    iPad or Android to access legitimate
                                    chords, guitar, bass, and drum tabs
                                    from Ultimate-Guitar.com database.

                                    Type "ultimate guitar tabs" in Apple
                                    App Store's or Android Market's
                                    search to find the application.
Band- Motley Crue
Song- Porno Star

d tuning- DGCFAD

\\- slide down
/- slide up
- slide down
x- palm mute
ph- pinch harmonic
h- hammer on

--------------------------------------------------------|
--------------------------------------------------------|
----------------------7-----------------------5-----5---|
----------5-----------7-----------7-----------5-----5---|
--x\\------5-----------5-----------7-----------3-----3--|
--x\\------3-----------------------5--------------------|

-----------------------------------------------------------------|
-----------------------------------------------------------------|
-----7-----7-----------------------------------------------------|
-----7-----7-------5---------------------------------------------|
-----5-----5-------5--5--5--5--5--5--5----5--5--5--5--5--5--5--5-|
-------------------3--3--3--3--3--3--3----3--3--3--3--3--3--3--3-|

-----------------------------------------------------------|
-----------------------------------------------------------|
---7-------------------------------------------------------|
---7--7--7--7--7--7--7---7--7--7--7--7--7--7--7----7-------|
---5--5--5--5--5--5--5---5--5--5--5--5--5--5--5----7--7--7-|
---------------------------------------------------5--5--5-|

---------------------------------------------------------------------|
---------------------------------------------------------------------|
----------------------------------------------5--5--x--x--5--5--x--x-|
----------------------------------------------5--5--x--x--5--5--x--x-|
---7--7--7--7----7--7-------------------------3--3--x--x--3--3--x--x-|
---5--5--5--5----5--5--7--8--7--5--7--8------------------------------|

----------------------------------------------------------------------|
----------------------------------------------------------------------|
--7--7--x--x--7--7--x-------------------------------------------------|
--7--7--x--x--7--7--x---5---------------------------------------------|
--5--5--x--x--5--5--x---5--5--5--5--5--5--5----5--5--5--5--5--5--5--5-|
------------------------3--3--3--3--3--3--3----3--3--3--3--3--3--3--3-|

------------------------------------------------|
------------------------------------------------|
--7---------------------------------------------|
--7--7--7--7--7--7--7----7--7--7--7--7--7--7--7-|
--5--5--5--5--5--5--5----5--5--5--5--5--5--5--5-|
------------------------------------------------|

-------------------------------------------------------------------------|
-------------------------------------------------------------------------|
--7-----------------------------------------------5--5--x--x--5--5--x--x-|
--7-----------------------------------------------5--5--x--x--5--5--x--x-|
--5--7--7--7--7--7--7----7--7---------------------3--3--x--x--3--3--x--x-|
-----5--5--5--5--5--5----5--5--7--8--7--5--7--8--------------------------|

                                                  ph
---------------------------------------------------|
---------------------------------------------------|
--7--7--x--x--7--7--x------------------------------|
--7--7--x--x--7--7--x------------------------------|
--5--5--x--x--5--5--x----------------------------3-|
----------------------------3-----5--5--3--5-------|

       ph   ph                                           ph
----------------------------------------------------------------------|
----------------------------------------------------------------------|
---------------------------------------------------------5-------5--5-|
-----------------------------------------------5-----5-------5--------|
------3-----3---------------------------------------------------------|
----------------------3-----5--5--3--5--------------------------------|

verse                                  ph
-------------------------------------------------------------|
-------------------------------------------------------------|
--------------------------------------3----------------------|
--------------------------------3--5-------------------------|
--------------------------3--3-------------------------------|
--3-----5--5--3--5-------------------------3-----5--5--3---5-|

                  ph                                      ph
------------------------------------------------------------|
------------------------------------------------------------|
-----------------3----------------------------------------3-|
------------3--5-----------------------------------3--5-----|
------3--3-----------------------------------3--3-----------|
-------------------------3-----5--5--3--5-------------------|

                                 ph                   ph
-------------------------------------------------------|
-------------------------------------------------------|
---------------------------------3---------------------|
----------------------------3--5---------------------5-|
----------------------3--3--------------------5--7-----|
----3-----5--5--3--5------------------5-----5----------|

                  ph               ph              ph
-----------------------------------------------------|
-----------------------------------------------------|
----------------------------------3----------------3-|
-----------------5----------3--5-------------3--5----|
------------5--7------3--3-------------3--3----------|
---5-----5-------------------------------------------|

-----------------------------------------------------------|
-----------------------------------------------------------|
----------------------5--------5--5------------------------|
----------------------5--------5--5------------------------|
-----------------------------------------------------------|
---3---5--5--3--5-------------------------3-----5--5--3--5-|

                                                    ph
-----------------------------------------------------|
-----------------------------------------------------|
---3--/--5-----------------------------------------3-|
---3--/--5-----------------------------------3--5----|
----------------------------------------3--3---------|
-----------------3-----5--5--3--5--------------------|

                                 ph                     ph
---------------------------------------------------------|
---------------------------------------------------------|
--------------------------------3------------------------|
--------------------------3--5-------------------------5-|
--------------------3--3--------------------------5--7---|
--3--5--5--3--5------------------------5-----5-----------|

               ph               ph              ph                 ph
--------------------------------------------------------------------|
--------------------------------------------------------------------|
-------------------------------3---------------3--------------------|
--------------5----------3--5-----------3--5----------------------5-|
--------5--7------3--3------------3--3---------------------5--7-----|
-5---5--------------------------------------------5-----5-----------|

                   ph
------------------------2-----2------3-----2---2h3----2-|
------------------------3-----3------3-----3---3------3-|
------------------------2-----2------2-----2---2------2-|
-------------------5------------------------------------|
-------------5--7---------------------------------------|
---5-----5----------------------------------------------|

chorus
----------------------------------------------------------------|
----------------------------------------------------------------|
--------------------------------------------------------7-------|
-------5------------------------------------------------7--7--7-|
-------5--5--5--5--5--5--5----5--5--5--5--5--5--5--5----5--5--5-|
-------3--3--3--3--3--3--3----3--3--3--3--3--3--3--3------------|

---------------------------------------------------------------|
---------------------------------------------------------------|
---------------------------------------------------------------|
---7--7--7--7----7--7--7--7--7--7--7--7----7-------------------|
---5--5--5--5----5--5--5--5--5--5--5--5----7--7--7--7--7--7--7-|
-------------------------------------------5--5--5--5--5--5--5-|

------------------------------------------------------------------------|
------------------------------------------------------------------------|
----------------------------5--5--x--x--5--5--x--x---7--7--x--x--7--7-x-|
----------------------------5--5--x--x--5--5--x--x---7--7--x--x--7--7-x-|
---7--7---------------------3--3--x--x--3--3--x--x---5--5--x--x--5--5-x-|
---5--5--7--8--7--5--7--8-----------------------------------------------|

---------------------------------------------------|
---------------------------------------------------|
---------------------------------------------------|
-----5---------------------------------------------|
-----5--5--5--5--5--5--5----5--5--5--5--5--5--5--5-|
-----3--3--3--3--3--3--3----3--3--3--3--3--3--3--3-|

-----------------------------------------------------------------------|
-----------------------------------------------------------------------|
--7--------------------------------------------------------------------|
--7--7--7--7--7--7--7----7--7--7--7--7--7--7--7----7-------------------|
--5--5--5--5--5--5--5----5--5--5--5--5--5--5--5----7--7--7--7--7--7--7-|
---------------------------------------------------5--5--5--5--5--5--5-|

-------------------------------------------------------------|
-------------------------------------------------------------|
-------------------------------5--5--x--x--5--5--x--x---7--7-|
-------------------------------5--5--x--x--5--5--x--x---7--7-|
----7--7-----------------------3--3--x--x--3--3--x--x---5--5-|
----5--5--7--8--7--5--7--8-----------------------------------|

                                         ph   bar dive
-------------------------------------------------------|
-------------------------------------------------------|
---x--x--7--7--x---------------------------------------|
---x--x--7--7--x-------------------------5-------------|
---x--x--5--5--x---------------------------------------|
---------------------3-----5--5--3--5------------------|

verse                   ph
---------------------------------------------------|
---------------------------------------------------|
-------------------------5-------------------------|
---------------------------------------------------|
---------------------------------------------------|
----3-----5--5--3--5--------------3-----5--5--3--5-|

                 ph                                       ph
-----------------------------------------------------------|
-----------------------------------------------------------|
-----------------3---------------------------------------3-|
-----------3--5-----------------------------------3--5-----|
-----3--3-----------------------------------3--3-----------|
-------------------------3-----5--5--3--5------------------|

                                         ph
-------------------------------------------------------------|
-------------------------------------------------------------|
----------------------------------------3--------------------|
----------------------------------3--5-----------------------|
----------------------------3--3-----------------------------|
------3-----5--5--3--5------------------------3---5--5--3--5-|

                     ph                 ph                 ph
------------------------------------------------------------|
------------------------------------------------------------|
--------------------3---------------------------------------|
--------------3--5---------------------5------------------5-|
--------3--3---------------------5--7---------------5--7----|
-------------------------5----5------------5-----5----------|

                ph                ph                   ph
---------------------------------------------------------|
---------------------------------------------------------|
---------------3----------------3--3---------------------|
---------3--5------------3--5--------------------------5-|
---3--3------------3--3--------------------------5--7----|
----------------------------------------5-----5----------|

              ph
--------------------2-----2------3-----2---2h3----2-|
--------------------3-----3------3-----3---3------3-|
--------------------2-----2------2-----2---2------2-|
--------------5-------------------------------------|
--------5--7----------------------------------------|
--5--5----------------------------------------------|

solo
-------------------------------------------|
-------------------------------------------| etc...
-------7-4-2----7-4--5-4-2-----------------|
--5-0--------0-----------------------------|
-------------------------------------------|
----------------------------7-8---7-5--7-8-|

---------------------------------------------------------------------|
---------------------------------------------------------------------|
--5----------------------------------------------7-------------------|
--5----------------------------------------------7--7--7--7--7--7--7-|
--3-5--5--5--5--5--5---5--5--5--5--5--5--5--5----5--5--5--5--5--5--5-|
----3--3--3--3--3--3---3--3--3--3--3--3--3--3------------------------|

---------------------------------------------------------------|
---------------------------------------------------------------|
---------------------------------------------------------------|
----7--7--7--7--7--7--7--7----7--------------------------------|
----5--5--5--5--5--5--5--5----7--7--7--7--7--7--7---7--7-------|
------------------------------5--5--5--5--5--5--5---5--5--7--8-|

----------------------------------------------------------------|
----------------------------------------------------------------|
------------------5--5--x--x--5--5--x--x----7--7--x--x--7--7--x-|
------------------5--5--x--x--5--5--x--x----7--7--x--x--7--7--x-|
------------------3--3--x--x--3--3--x--x----5--5--x--x--5--5--x-|
---7--5--7--8---------------------------------------------------|

------------------------------------------------------------------------|
------------------------------------------------------------------------|
----------------------------------------------------7-------------------|
---5------------------------------------------------7--7--7--7--7--7--7-|
---5--5--5--5--5--5--5----5--5--5--5--5--5--5--5----5--5--5--5--5--5--5-|
---3--3--3--3--3--3--3----3--3--3--3--3--3--3--3------------------------|

-----------------------------------------------------------|
-----------------------------------------------------------|
-----------------------------------------------------------|
-----7--7--7--7--7--7--7--7----7---------------------------|
-----5--5--5--5--5--5--5--5----7--7--7--7--7--7--7----7--7-|
-------------------------------5--5--5--5--5--5--5----5--5-|

-----------------------------------------------------------------------|
-----------------------------------------------------------------------|
-------------------------5--5--x--x--5--5--x--x----7--7--x--x--7--7--x-|
-------------------------5--5--x--x--5--5--x--x----7--7--x--x--7--7--x-|
-------------------------3--3--x--x--3--3--x--x----5--5--x--x--5--5--x-|
---7--8--7--5--7--8----------------------------------------------------|

-------------------------------------------------------------|
-------------------------------------------------------------|
-----------------------------------------------------7-------|
-----5-----------------------------------------------7--7--7-|
-----5--5--5--5--5--5--5---5--5--5--5--5--5--5--5----5--5--5-|
-----3--3--3--3--3--3--3---3--3--3--3--3--3--3--3------------|

---------------------------------------------------------------|
---------------------------------------------------------------|
---------------------------------------------------------------|
---7--7--7--7----7--7--7--7--7--7--7--7----7-------------------|
---5--5--5--5----5--5--5--5--5--5--5--5----7--7--7--7--7--7--7-|
-------------------------------------------5--5--5--5--5--5--5-|

------------------------------------------------------------------|
------------------------------------------------------------------|
------------------------------5--5--x--x--5--5--x--x---7--7--x--x-|
------------------------------5--5--x--x--5--5--x--x---7--7--x--x-|
---7--7-----------------------3--3--x--x--3--3--x--x---5--5--x--x-|
---5--5--7--8--7--5--7--8-----------------------------------------|

                                 girls talking
-----------------------------------------------------------|
-----------------------------------------------------------|
---7--7--x----------------------------------------------5--|
---7--7--x---7-----------------------------------------5---|
---5--5--x---7-----------------------------------------3---|
-------------5---------------------------------------------|

---------------------------------------------------------------|
---------------------------------------------------------------|
------5-----5--/---7-----7--7----------------------------------|
------5-----5--/---7-----7--7---7--7--7--7--7--7--7--7----7--7-|
------3-----3--/---5-----5--5---7--7--7--7--7--7--7--7----7--7-|
--------------------------------5--5--5--5--5--5--5--5----5--5-|

------------------------------------------------------------------------|
------------------------------------------------------------------------|
------------------------------------------------------------------------|
--7--7--7--7--7--7----6--6--6--6--6--6--6--6---6--6--6--6--6--6--6--6---|
--7--7--7--7--7--7----6--6--6--6--6--6--6--6---6--6--6--6--6--6--6--6---|
--5--5--5--5--5--5----4--4--4--4--4--4--4--4---4--4--4--4--4--4--4--4---|

---------------------------------------------------|
---------------------------------------------------|
---------------------------------------------------|
--5--5--5--5--5--5--5--5----5--5--5--5--5--5--5--5-|
--5--5--5--5--5--5--5--5----5--5--5--5--5--5--5--5-|
--3--3--3--3--3--3--3--3----3--3--3--3--3--3--3--3-|

--5----5-----4-----5-----5--4----------------------------------------|
--5----5-----5-----5-----5--5----------------------------------------|
---------------------------------------------------------------------|
------------------------------------7--7--7--7--7--7--7--7---7--7--7-|
------------------------------------7--7--7--7--7--7--7--7---7--7--7-|
------------------------------------5--5--5--5--5--5--5--5---5--5--5-|

--------------------------------------------------------------------|
--------------------------------------------------------------------|
--------------------------------------------------------------------|
---7--7--7--7--7----6--6--6--6--6--6--6--6---6--6--6--6--6--6--6--6-|
---7--7--7--7--7----6--6--6--6--6--6--6--6---6--6--6--6--6--6--6--6-|
---5--5--5--5--5----4--4--4--4--4--4--4--4---4--4--4--4--4--4--4--4-|

----------------------------------------------------|
----------------------------------------------------|
----------------------------------------------------|
---5--5--5--5--5--5--5--5----5--5--5--5--5--5--5--5-|
---5--5--5--5--5--5--5--5----5--5--5--5--5--5--5--5-|
---3--3--3--3--3--3--3--3----3--3--3--3--3--3--3--3-|

--5---5-----4-----5-----5--4------------------------------------------|
--5---5-----5-----5-----5--5------------------------------------------|
----------------------------------------------------------------------|
----------------------------------7--7--7--7--7--7--7--7---7--7--7--7-|
----------------------------------7--7--7--7--7--7--7--7---7--7--7--7-|
----------------------------------5--5--5--5--5--5--5--5---5--5--5--5-|

-----------------------------------------------------------------|
-----------------------------------------------------------------|
-----------------------------------------------------------------|
---7--7--7--7----6--6--6--6--6--6--6--6---6--6--6--6--6--6--6--6-|
---7--7--7--7----6--6--6--6--6--6--6--6---6--6--6--6--6--6--6--6-|
---5--5--5--5----4--4--4--4--4--4--4--4---4--4--4--4--4--4--4--4-|

-----------------------------------------------------|
-----------------------------------------------------|
-----------------------------------------------------|
-----5--5--5--5--5--5--5--5---5--5--5--5--5--5--5--5-|
-----5--5--5--5--5--5--5--5---5--5--5--5--5--5--5--5-|
-----3--3--3--3--3--3--3--3---3--3--3--3--3--3--3--3-|

---5----4-----5-----5--4--------|
---5----5-----5-----5--5--------|
------------------------------4-|
------------------------------4-|
------------------------------2-|
--------------------------------|
comments
print report bad tab
1 comment total.
0 reply
Punkismygod wrote on July 31 2007, 11:45 am

great but solos bit off still 4 stars!

I want to post or [tab]
guest
You may want to rate the tab now too:
select rating
Please do not post tabs as comments. Select "correction" instead!