Oops, an error
Loading. Please wait.

Public Enemy 1 Bass Tab

ver2
ver2

Whole song

Interactive

More versions @911Tabs.com
195 views 3 this week
no commentswrite comment
1 2 3 4 5
excellent!
x 1
add to favorites launch autoscroll
font size
0
reset
Autoscroll
+/-
esc
set tempo
stop
Contributor
Difficulty
intermediate
WARNING: You are trying to view
                                    content from Ultimate-Guitar.com
                                    in an unauthorized application,
                                    which is prohibited.

                                    Please use an official Ultimate
                                    Guitar Tabs application for iPhone,
                                    iPad or Android to access legitimate
                                    chords, guitar, bass, and drum tabs
                                    from Ultimate-Guitar.com database.

                                    Type "ultimate guitar tabs" in Apple
                                    App Store's or Android Market's
                                    search to find the application.
-----------------------------------------------------------------------------
                                  
             Public Enemy No1   - Motley Crue (BASS)
            
-----------------------------------------------------------------------------
Tabbed by: Scotto10

Tuning: tune all strings down one step

=============================================================================

Bass



     E  E  E  S E  E.  Q       E  E  E  S E  E.  Q     
F||-------------------------|-------------------------|
C||-------------------------|-------------------------|
G||--7--7--7--7-7-----------|--7--7--7--7-7-----------|
D||-------------------------|-------------------------|


  E  E  E  S E  E.  Q       E  E  E  S E  E.  Q       E  E  E  S E  E.  Q     
-------------------------|-------------------------|-------------------------|
-------------------------|-------------------------|-------------------------|
--7--7--7--7-7-----------|--7--7--7--7-7-----------|--7--7--7--7-7-----------|
-------------------------|-------------------------|-------------------------|


  E  E  E  S E  E.  Q       E  E  E  S E  E.  Q       E  E  E  S E  E.  E  E   
-------------------------|-------------------------|--------------------------|
-------------------------|-------------------------|--------------------------|
--7--7--7--7-7-----------|--7--7--7--7-7-----------|--7--7--7--7-7--7---7-----|
-------------------------|-------------------------|-----------------------0--|


  E  E  Q    Q    E  E       E   E   E   E   E   E   E  E   
-------------------------|---------------------------------|
-------------------------|---------------------------------|
-------------------------|--14--14--14--14--14--14--14--0--|
--7-----7----7----7--L/--|---------------------------------|


  E  E  Q    Q    E  E       E   E  E   E  E   E  E  E   
-------------------------|------------------------------|
-------------------------|------------------------------|
-------------------------|--14--14-----14-----14-----0--|
--7-----7----7----7--L/--|------------------------------|


  E  E  E  E  E  E  E  E     E  E  E  E  E  E  E  E   
--------------------------|--------------------------|
--------------------------|--------------------------|
--7--7--7--7--7--7--7--7--|--7--7--7--7--7--7--7--7--|
--------------------------|--------------------------|


  E  E  E  E  E  E  E  E     E  E  E  E  E  E  E  E     E  E  Q    Q    E  E    
--------------------------|--------------------------|-------------------------|
--------------------------|--------------------------|-------------------------|
--7--7--7--7--7--7--7--7--|--7--7--7--7--7--7--7--7--|-------------------------|
--------------------------|--------------------------|--7-----7----7----7--L/--|


    E   E   E   E   E   E   E  E     E  E  Q    Q    E  E    
----------------------------------|-------------------------|
----------------------------------|-------------------------|
--/14--14--14--14--14--14--14--0--|-------------------------|
----------------------------------|--7-----7----7----7--L/--|


   E   E  E   E  E   E   E  E     E  E  E  E  E  E  E  E   
-------------------------------|--------------------------|
-------------------------------|--------------------------|
--14--14-----14-----14--14--0--|--7--7--7--7--7--7--7--7--|
-------------------------------|--------------------------|


  E  E  E  E  E  E  E  E     E  E  E  E  E  E  E  E   
--------------------------|--------------------------|
--------------------------|--------------------------|
--7--7--7--7--7--7--7--7--|--7--7--7--7--7--7--7--7--|
--------------------------|--------------------------|


  E  E  E  E  E  E  E  E     E  E  Q    Q    E  E    
--------------------------|-------------------------|
--------------------------|-------------------------|
--7--7--7--7--7--7--7--7--|-------------------------|
--------------------------|--7-----7----7----7--L/--|


    E   E   E   E   E   E   E  E     E  E  Q    Q    E  E    
----------------------------------|-------------------------|
----------------------------------|-------------------------|
--/14--14--14--14--14--14--14--0--|-------------------------|
----------------------------------|--7-----7----7----7--L/--|


   E   E  E   E  E   E   E  E     Q    E  E  E  E  E  E   
-------------------------------|-------------------------|
-------------------------------|-------------------------|
--14--14-----14-----14--14--0--|--L----L--0--0--0--5--7--|
-------------------------------|-------------------------|


  E  E  E  E  E  E  E  E     Q    E  E  E  E  E  E   
-----9-----7-----6-----4--|-------------------------|
--------------------------|-------------------------|
--L-----5-----4-----2-----|--0----0--0--0--0--5--7--|
--------------------------|-------------------------|


  E  E  E   E   E   E   E   E     Q    E  E  E  E  E  E   
-----9-----11------12------14--|-------------------------|
-------------------------------|-------------------------|
--L-----9------10------12------|--0----L--0--0--0--5--7--|
-------------------------------|-------------------------|


  E  E  E  E  E  E  E  E     E  E  E  E  E  E  E  E   
-----9-----7-----6-----4--|--------------------------|
--------------------------|--------------------------|
--L-----5-----4-----2-----|--2--2--2--2--2--2--2--2--|
--------------------------|--------------------------|


  E  E  E  E  E  E  E  E     E  E  E  E  E  E  E  E   
--------------------------|--------------------------|
--------------------------|--------------------------|
--2--2--2--2--2--2--2--2--|--2--2--2--2--2--2--2--2--|
--------------------------|--------------------------|


  |--3--|  |--3--|  |--3--|                                   
  E  E  E  E  E  E  E  E  E  E  E     Q    E  E  E  E  E  E   
-----------------------------------|-------------------------|
--9--9--9--9--9--9--9--9--9--------|-------------------------|
-----------------------------5--6--|--7----5--5--4--4--2--0--|
-----------------------------------|-------------------------|


  E  E  E  E  E  E  E  E     Q    E  E  E  E  E  E     E  E  E  E  E  E  E  E   
--------------------------|-------------------------|--------------------------|
--------------------------|-------------------------|--------------------------|
--0--0--------------5--5--|--7----5--5--4--4--2--0--|--0--0--------------5--5--|
--------3--3--5--7--------|-------------------------|--------3--3--5--7--------|


  Q    E  E  E  E  E  E     E  E  E  E  E  E  E  E     E  E  E  E  E  E  E  E   
-------------------------|--------------------------|--------------------------|
-------------------------|--------------------------|--------------------------|
--7----5--5--4--4--2--0--|--0--0--------------5--5--|--------------------------|
-------------------------|--------3--3--5--7--------|--7--7--7--7--7--7--7--7--|


  E  E  E  E  E  E  E  E     E  E  E  E  E  E  E  E   
--------------------------|--------------------------|
--------------------------|--------------------------|
--------------------------|--------------------------|
--7--7--7--7--7--7--7--7--|--7--7--7--7--7--7--7--7--|


  E  E  E  E  E  E  E  E     E  E  E  E  E  E  E  E   
--------------------------|--------------------------|
--------------------------|--------------------------|
--------------------------|--7--7--7--7--7--7--7--7--|
--7--7--7--7--7--7--7--7--|--------------------------|


  E  E  E  E  E  E  E  E     E  E  E  E  E  E  E  E   
-----------------7-----8--|--------------------------|
--------------------------|--------------------------|
--7--7--7--0--5-----6-----|--7--7--7--7--7--7--7--7--|
--------------------------|--------------------------|


  E  E  E  E  E  E  E  E     E  E  Q    E  E  E  E   
-----------------7-----8--|-------------------------|
--------------------------|-------------------------|
--7--7--7--0--5-----6-----|-------------------------|
--------------------------|--7-----7----7--7--7--7--|


   E  E  E  E  E  E  E  E      E  E  Q    E  E  E  E   
----------------------------|-------------------------|
--/9--9--9--9--9--9--9--9\--|-------------------------|
----------------------------|-------------------------|
----------------------------|--7-----7----7--7--7--7--|


  E  E  E  E  E  E  E  E     E  E  E  E  E  E  E  E   
--------------------------|--------------------------|
--9--9-----9-----9--9-----|--------------------------|
--------------------------|--7--7--7--7--7--7--7--7--|
-----------------------0--|--------------------------|


  E  E  E  E  E  E  E  E     E  E  E  E  E  E  E  E   
--------------------------|--------------------------|
--------------------------|--------------------------|
--7--7--7--7--7--7--7--7--|--7--7--7--7--7--7--7--7--|
--------------------------|--------------------------|


                       |-3-|                            
  E  E  E  E  E  E  E  S S S    E  E  Q    Q    E  E    
-----------------------------|-------------------------|
-----------------------------|-------------------------|
--7--7--7--7--7--7--7--------|-------------------------|
-----------------------5-5-5-|--7-----7----7----7--L/--|


                               |-3-|                            
    E   E   E   E   E   E   E  S S S    E  E  Q    Q    E  E    
-------------------------------------|-------------------------|
-------------------------------------|-------------------------|
--/14--14--14--14--14--14--14--0-0-0-|-------------------------|
-------------------------------------|--7-----7----7----7--L/--|


   E   E  E   E  E   E   E  E     E  E  E  E  E  E  E  E   
-------------------------------|--------------------------|
-------------------------------|--------------------------|
--14--14-----14-----14--14--0--|--7--7--7--7--7--7--7--7--|
-------------------------------|--------------------------|


  E  E  E  E  E  E  E  E     E  E  E  E  E  E  E  E   
--------------------------|--------------------------|
--------------------------|--------------------------|
--7--7--7--7--7--7--7--7--|--7--7--7--7--7--7--7--7--|
--------------------------|--------------------------|


                       |-3-|                            
  E  E  E  E  E  E  E  S S S    E  E  Q    Q    E  E    
-----------------------------|-------------------------|
-----------------------------|-------------------------|
--7--7--7--7--7--7--7--------|-------------------------|
-----------------------5-5-5-|--7-----7----7----7--L/--|


                               |-3-|                            
    E   E   E   E   E   E   E  S S S    E  E  Q    Q    E  E    
-------------------------------------|-------------------------|
-------------------------------------|-------------------------|
--/14--14--14--14--14--14--14--0-0-0-|-------------------------|
-------------------------------------|--7-----7----7----7--L/--|


   E   E  E   E  E   E   E  E     Q    E  E  E  E  E  E   
-------------------------------|-------------------------|
-------------------------------|-------------------------|
--14--14-----14-----14--14--0--|--L----L--0--0--0--5--7--|
-------------------------------|-------------------------|


  E  E  E  E  E  E  E  E     Q    E  E  E  E  E  E   
-----9-----7-----6-----4--|-------------------------|
--------------------------|-------------------------|
--L-----5-----4-----2-----|--0----0--0--0--0--5--7--|
--------------------------|-------------------------|


  E  E  E   E   E   E   E   E     Q    E  E  E  E  E  E   
-----9-----11------12------14--|-------------------------|
-------------------------------|-------------------------|
--L-----9------10------12------|--0----L--0--0--0--5--7--|
-------------------------------|-------------------------|


  E  E  E  E  E  E  E  E     E  E  E  E  E  E  E  E   
-----9-----7-----6-----4--|--------------------------|
--------------------------|--------------------------|
--L-----5-----4-----2-----|--2--2--2--2--2--2--2--2--|
--------------------------|--------------------------|


  E  E  E  E  E  E  E  E     E  E  E  E  E  E  E  E   
--------------------------|--------------------------|
--------------------------|--------------------------|
--2--2--2--2--2--2--2--2--|--2--2--2--2--2--2--2--2--|
--------------------------|--------------------------|


  |--3--|  |--3--|  |--3--|                                   
  E  E  E  E  E  E  E  E  E  E  E     Q    E  E  E  E  E  E   
-----------------------------------|-------------------------|
--9--9--9--9--9--9--9--9--9--------|-------------------------|
-----------------------------5--6--|--7----5--5--4--4--2--0--|
-----------------------------------|-------------------------|


  E  E  E  E  E  E  E  E     Q    E  E  E  E  E  E     E  E  E  E  E  E  E  E   
--------------------------|-------------------------|--------------------------|
--------------------------|-------------------------|--------------------------|
--0--0--------------5--5--|--7----5--5--4--4--2--0--|--0--0--------------5--5--|
--------3--3--5--7--------|-------------------------|--------3--3--5--7--------|


  E  E  E  E  E  E  E  E     E  E  E  E  E  E  E  E   
--------------------------|--------------------------|
--------------------------|--------------------------|
--7--7--5--5--4--4--2--0--|--0--0--------------5--5--|
--------------------------|--------3--3--5--7--------|


  E  E  E  E  E  E  E  E     E  E  E  E  E  E  E  E   
--------------------------|--------------------------|
--------------------------|--------------------------|
--------------------------|--------------------------|
--7--7--7--7--7--7--7--7--|--7--7--7--7--7--7--7--7--|


                             |--3--|  |--3--|  |--3--|  |--3--|   
  E  E  E  E  E  E  E  E     E  E  E  E  E  E  E  E  E  E  E  E   
--------------------------|--------------------------------------|
--------------------------|--9--9--9--9--9--9--9--9--9--9--9--9--|
--------------------------|--------------------------------------|
--7--7--7--7--7--7--7--7--|--------------------------------------|


  E  E  E  E  E  E  E  E     E  E  E  E  E  E  E  E   
--------------------------|-----------------7-----8--|
--------------------------|--------------------------|
--7--7--7--7--7--7--7--7--|--7--7--7--0--5-----6-----|
--------------------------|--------------------------|


  E  E  E  E  E  E  E  E     E  E  E  E  E  E  E  E     E  E  Q    E  E  E  E   
--------------------------|-----------------7-----8--|-------------------------|
--------------------------|--------------------------|-------------------------|
--7--7--7--7--7--7--7--7--|--7--7--7--0--5-----6-----|-------------------------|
--------------------------|--------------------------|--7-----7----7--7--7--7--|


                        |-3-|                            
   E  E  E  E  E  E  E  S S S    E  E  Q    E  E  E  E   
------------------------------|-------------------------|
--/9--9--9--9--9--9--9--------|-------------------------|
------------------------0-0-0-|-------------------------|
------------------------------|--7-----7----7--7--7--7--|


  E  E  E  E  E  E  E  E     E  E  E  E  E  E  E  E   
--------------------------|--------------------------|
--9--9-----9-----9--9-----|--------------------------|
--------------------------|--7--7--7--7--7--7--7--7--|
-----------------------0--|--------------------------|


  E  E  E  E  E  E  E  E     E  E  E  E  E  E  E  E   
-----------------7-----8--|--------------------------|
--------------------------|--------------------------|
--7--7--7--0--5-----6-----|--7--7--7--7--7--7--7--7--|
--------------------------|--------------------------|


                       |-3-|                            
  E  E  E  E  E  E  E  S S S    E  E  Q    E  E  E  E   
-----------------------------|-------------------------|
-----------------------------|-------------------------|
--7--7--7--7--7--7--7--0-0-0-|-------------------------|
-----------------------------|--7-----7----7--7--7--7--|


                        |-3-|                            
   E  E  E  E  E  E  E  S S S    E  E  Q    E  E  E  E   
------------------------------|-------------------------|
--/9--9--9--9--9--9--9--------|-------------------------|
------------------------0-0-0-|-------------------------|
------------------------------|--7-----7----7--7--7--7--|


  E  E  E  E  E  E  E  E     Q    E  E  E  E  E  E     E  E  E  E  E  E  E  E   
--------------------------|-------------------------|-----9-----7-----6-----4--|
--9--9-----9-----9--9-----|-------------------------|--------------------------|
-----------------------0--|--L----L--0--0--0--5--7--|--L-----5-----4-----2-----|
--------------------------|-------------------------|--------------------------|


  Q    E  E  E  E  E  E     E  E  E   E   E   E   E   E   
-------------------------|-----9-----11------12------14--|
-------------------------|-------------------------------|
--0----0--0--0--0--5--7--|--L-----9------10------12------|
-------------------------|-------------------------------|


                                                       PM PM PM PM PM PM PM PM  
  Q    E  E  E  E  E  E     E  E  E  E  E  E  E  E     E  E  E  E  E  E  E  E   
-------------------------|-----9-----7-----6-----4--|--------------------------|
-------------------------|--------------------------|--------------------------|
--0----L--0--0--0--5--7--|--L-----5-----4-----2-----|--2--2--2--2--2--2--2--2--|
-------------------------|--------------------------|--------------------------|


  PM PM PM PM PM PM PM PM                             
  E  E  E  E  E  E  E  E     E  E  E  E  E  E  E  E   
--------------------------|--------------------------|
--------------------------|--------------------------|
--2--2--2--2--2--2--2--2--|--2--2--2--2--2--2--2--2--|
--------------------------|--------------------------|


  |--3--|  |--3--|  |---3--|                                                    
  E  E  E  E  E  E  E  E   E  E  E     Q    H.              H.           E  E   
------------------------------------|--------------------|---------------------|
--9--9--9--9--9--9--9--9\--L--------|--------------------|---------------------|
------------------------------------|--------------------|---------------------|
------------------------------3--4--|--0-----------------|---------------3--4--|


  Q    H.              H.           E  E     E  E  E  E  H         
--------------------|---------------------|-----------------------|
--------------------|---------------------|-----------------------|
--------------------|---------------------|-----------------------|
--0-----------------|---------------3--4--|--0-----0--------------|


  H.           E  E     E  E  E  E  H           H.           E  E   
---------------------|-----------------------|---------------------|
---------------------|-----------------------|---------------------|
---------------------|-----------------------|---------------5--6--|
---------------3--4--|--0-----0--------------|---------------------|


  Q    E  E  E  E  E  E     E  E  E  E  E  E  E  E     E  E  E  E  E  E  E  E   
-------------------------|--------------------------|--------------------------|
-------------------------|--------------------------|--------------------------|
--7----5--5--4--4--2--0--|--0--0--------------5--6--|--7--7--5--5--4--4--2--0--|
-------------------------|--------3--3--5--7--------|--------------------------|


  E  E  E  E  E  E  E  E     E  E  E  E  E  E  E  E   
--------------------------|--------------------------|
--------------------------|--------------------------|
--0--0--------------5--6--|--7--7--5--5--4--4--2--0--|
--------3--3--5--7--------|--------------------------|


  E  E  E  E  E  E  E  E     Q    E  E  E  E  E  E     E  E  E  E  E  E  E  E   
--------------------------|-------------------------|--------------------------|
--------------------------|-------------------------|--------------------------|
--0--0--------------5--6--|--7----5--5--4--4--2--0--|--0--0--------------5--6--|
--------3--3--5--7--------|-------------------------|--------3--3--5--7--------|


  Q    E  E  E  E  E  E     E  E  E  E  E  E  E  E     E  E  E  E  E  E  E  E   
-------------------------|--------------------------|--------------------------|
-------------------5--7--|--L--7--5--5--4-----------|--------------------5--7--|
--7----5--5--4--4--------|-----------------5--6--7--|--L--7--5--5--4--4--------|
-------------------------|--------------------------|--------------------------|


  E  E  E  E  E  E  E  E     E  E  E  E  E  Q    E     E  E  E  E  E  E  E  E   
--------------------------|-------------------------|--------------------------|
--L--7--5--5--4-----------|----------------------7--|--L--7--5--5--4-----------|
-----------------5--6--7--|--L--7--5--5--4--4-------|-----------------5--6--7--|
--------------------------|-------------------------|--------------------------|


  E  E  E  E  E  Q    E     E  E  E  E  E  E  E  E     E  E  E  E  E  E  E  E   
-------------------------|--------------------------|--------------------------|
----------------------7--|--L--7--5--5--4-----------|--------------------------|
--L--7--5--5--4--4-------|-----------------5--6--7--|--7--L--5--5--4--4--2--2--|
-------------------------|--------------------------|--------------------------|


  E  E  E  E  E  E  E  E     E  E  E  E  E  E  E  E   
--------------------------|--------------------------|
--------------------------|--------------------------|
--0--0-----------------0--|--2--2--2--2--2--2--2--2--|
--------3--3--2--0--3-----|--------------------------|


  E  E  E  E  E  E  E  E     E  E  E  E  E  E  E  E   
--------------------------|--------------------------|
--------------------------|--------------------------|
--2--2--2--2--2--2--2--2--|--2--2--2--2--2--2--2--2--|
--------------------------|--------------------------|


  E  E  E  E  E  E  E  E     E  E  E  S E  E.  Q       E  E  E  S E  E.  Q     
--------------------------|-------------------------|-------------------------|
--------------------------|-------------------------|-------------------------|
--2--2--2--2--2--2--2--2--|--7--7--7--7-7-----------|--7--7--7--7-7-----------|
--------------------------|-------------------------|-------------------------|


  E  E  E  S E  E.  Q       E  E  E  S E  E.  Q      
-------------------------|-------------------------||
-------------------------|-------------------------||
--7--7--7--7-7-----------|--7--7--7--7-7-----------||
-------------------------|-------------------------||




Duration Legend
---------------
W - whole
H - half
Q - quarter
E - 8th
S - 16th
T - 32nd
X - 64th
. - note dotted
|-n-|  - n-tuplets


Tablature Legend
----------------
L - tied note
x - dead note
g - grace note
(n) - ghost note
> - accentuded note
NH - natural harmonic
AH - artificial harmonic
TH - tapped harmonic
SH - semi harmonic
PH - pitch harmonic
h - hammer on
p - pull off
b - bend
br - bendRelease
pb - preBend
pbr - preBendRelease
brb - bendReleaseBend
\n/ - tremolo bar dip
\n - tremolo bar dive
-/n - tremolo bar Release up
/n\ - tremolo bar inverted dip
/n - tremolo bar return
-\n - tremolo bar Release down
S - shift slide
s - legato slide
/ -  slide into from below or out of upwards
\ -  slide into from above or out of downwards
~ - vibrato
W - wide vibrato
tr - trill
TP - tremolo picking
T - tapping
S - slap
P - pop
< - fade in
^ - brush up
v - brush down
comments
We did not receive enough feedback on this tab! Please rate:
print report bad tab
1 2 3 4 5
I want to post or [tab]
guest
You may want to rate the tab now too:
select rating
Please do not post tabs as comments. Select "correction" instead!