Oops, an error
Loading. Please wait.

Public Enemy 1 Tab

ver4
ver4

Whole song

Interactive

More versions @911Tabs.com
527 views 3 this week
no commentswrite comment
1 2 3 4 5
please rate
Autoscroll
+/-
esc
set tempo
stop
Contributor
Difficulty
intermediate
WARNING: You are trying to view
                                    content from Ultimate-Guitar.com
                                    in an unauthorized application,
                                    which is prohibited.

                                    Please use an official Ultimate
                                    Guitar Tabs application for iPhone,
                                    iPad or Android to access legitimate
                                    chords, guitar, bass, and drum tabs
                                    from Ultimate-Guitar.com database.

                                    Type "ultimate guitar tabs" in Apple
                                    App Store's or Android Market's
                                    search to find the application.
-----------------------------------------------------------------------------
                                  
              Public Enemy No1  - Motley Crue (GUITAR)
            
-----------------------------------------------------------------------------
Tabbed by: Scotto10

Tuning: tune all strings down one step

=============================================================================

Guitar 1



     E  E  E  S E  E.  Q       E  E  E  S E  E.  Q     
D||-------------------------|-------------------------|
A||-------------------------|-------------------------|
F||-------------------------|-------------------------|
C||--9--9--9--9-9-----------|--9--9--9--9-9-----------|
G||--7--7--7--7-7-----------|--7--7--7--7-7-----------|
D||-------------------------|-------------------------|


  E  E  E  S E  E.  Q       E  E  E  S E  E.  Q       E  E  E  S E  E.  Q     
-------------------------|-------------------------|-------------------------|
-------------------------|-------------------------|-------------------------|
-------------------------|-------------------------|-------------------------|
--9--9--9--9-9-----------|--9--9--9--9-9-----------|--9--9--9--9-9-----------|
--7--7--7--7-7-----------|--7--7--7--7-7-----------|--7--7--7--7-7-----------|
-------------------------|-------------------------|-------------------------|


  E  E  E  S E  E.  Q       E  E  E  S E  E.  Q       E  E  E  S E  E.  Q     
-------------------------|-------------------------|-------------------------|
-------------------------|-------------------------|-------------------------|
-------------------------|-------------------------|-------------------------|
--9--9--9--9-9-----------|--9--9--9--9-9-----------|--9--9--9--9-9-----------|
--7--7--7--7-7-----------|--7--7--7--7-7-----------|--7--7--7--7-7-----------|
-------------------------|-------------------------|-------------------------|


                           PM PM PM PM                                
  E  E  H.              E  E  E  E  E  E  Q       E  E  H.            
---------------------|-------------------------|---------------------|
---------------------|-------------------------|---------------------|
---------------------|-------------------------|---------------------|
---------------------|-------------------------|---------------------|
--9-----9------------|--9--9--9--9--9--9--9----|--9-----9------------|
--7-----7------------|--7--7--7--7--7--7--7----|--7-----7------------|


        PM    PM                              
  E  E  E  E  E  E  Q       W                 
-------------------------|-------------------|
-------------------------|-------------------|
-------------------------|-------------------|
-------------------------|--9----------------|
--9--9--9--9--9--9--9----|--7----------------|
--7--7--7--7--7--7--7----|--0----------------|


  PM PM PM PM PM PM PM PM PM PM PM PM                      
  E  S  S  E  S  S  E  S  S  E  S  S     W                 
--------------------------------------|-------------------|
--------------------------------------|-------------------|
--------------------------------------|-------------------|
--9--9--9--9--9--9--9--9--9--9--9--9--|--9----------------|
--7--7--7--7--7--7--7--7--7--7--7--7--|--7----------------|
--0--0--0--0--0--0--0--0--0--0--0--0--|--0----------------|


  PM PM PM PM PM PM PM PM PM PM                               
                                |-3-|                         
  E  S  S  E  S  S  E  S  S  E  S S S    E  E  H        Q     
--------------------------------------|----------------------|
--------------------------------------|----------------------|
--------------------------------------|----------------------|
--9--9--9--9--9--9--9--9--9--9--------|----------------------|
--7--7--7--7--7--7--7--7--7--7--9-9-9-|--9-----9--------L----|
--0--0--0--0--0--0--0--0--0--0--7-7-7-|--7-----7--------L----|


     PM PM PM PM PM                                       PM PM PM PM PM        
                       |-3-|                                                    
  E  E  E  E  E  E  E  S S S    E  E  H        Q       E  E  E  E  E  E  E  E   
-----------------------------|----------------------|--------------------------|
-----------------------------|----------------------|--------------------------|
-----------------------------|----------------------|--------------------------|
-----------------------------|----------------------|--------------------------|
--L--9--9--9--9--9--9--9-9-9-|--9-----9--------L----|--L--9--9--9--9--9--9--0--|
--L--7--7--7--7--7--7--7-7-7-|--7-----7--------L----|--L--7--7--7--7--7--7-----|


                      PM PM PM PM PM PM PM PM PM PM PM PM                      
  W                   E  S  S  E  S  S  E  S  S  E  S  S     W                 
-------------------|--------------------------------------|-------------------|
-------------------|--------------------------------------|-------------------|
-------------------|--------------------------------------|-------------------|
--9----------------|--9--9--9--9--9--9--9--9--9--9--9--9--|--9----------------|
--7----------------|--7--7--7--7--7--7--7--7--7--7--7--7--|--7----------------|
--0----------------|--0--0--0--0--0--0--0--0--0--0--0--0--|--0----------------|


  PM PM PM PM PM PM PM PM PM PM                               
                                |-3-|                         
  E  S  S  E  S  S  E  S  S  E  S S S    E  E  H        Q     
--------------------------------------|----------------------|
--------------------------------------|----------------------|
--------------------------------------|----------------------|
--9--9--9--9--9--9--9--9--9--9--------|----------------------|
--7--7--7--7--7--7--7--7--7--7--9-9-9-|--9-----9--------L----|
--0--0--0--0--0--0--0--0--0--0--7-7-7-|--7-----7--------L----|


     PM PM PM PM PM                                       PM PM PM PM PM        
                       |-3-|                                                    
  E  E  E  E  E  E  E  S S S    E  E  H        Q       E  E  E  E  E  E  E  E   
-----------------------------|----------------------|--------------------------|
-----------------------------|----------------------|--------------------------|
-----------------------------|----------------------|--------------------------|
-----------------------------|----------------------|--------------------------|
--L--9--9--9--9--9--9--9-9-9-|--9-----9--------L----|--L--9--9--9--9--9--9--0--|
--L--7--7--7--7--7--7--7-7-7-|--7-----7--------L----|--L--7--7--7--7--7--7--0--|


       PM PM PM    PM            PM PM PM PM PM PM         PM PM PM    PM     
  Q    E  E  E  E  E  E     Q    E  E  E  E  E  E     Q    E  E  E  E  E  E   
-------------------------|-------------------------|-------------------------|
-------------------------|-------------------------|-------------------------|
-------------------------|-------------------------|-------------------------|
----------------------9--|--L----9--9--9--9--9--9--|----------------------9--|
--7----7--7--7--7--7--7--|--L----7--7--7--7--7--7--|--7----7--7--7--7--7--7--|
--5----5--5--5--5--5--0--|--L----0--0--0--0--0--0--|--5----5--5--5--5--5--0--|


       PM PM PM PM PM PM         PM PM PM    PM            PM PM PM PM PM PM  
  Q    E  E  E  E  E  E     Q    E  E  E  E  E  E     Q    E  E  E  E  E  E   
-------------------------|-------------------------|-------------------------|
-------------------------|-------------------------|-------------------------|
-------------------------|-------------------------|-------------------------|
--L----9--9--9--9--9--9--|----------------------9--|--L----9--9--9--9--9--9--|
--L----7--7--7--7--7--7--|--7----7--7--7--7--7--7--|--L----7--7--7--7--7--7--|
--L----0--0--0--0--0--0--|--5----5--5--5--5--5--0--|--L----0--0--0--0--0--0--|


  PM PM PM PM PM PM PM PM    PM PM PM PM PM PM PM            PM PM PM PM PM PM  
  E  E  E  E  E  E  E  E     E  E  E  E  E  E  E  E     Q    E  E  E  E  E  E   
--------------------------|--------------------------|-------------------------|
--------------------------|--------------------------|-------------------------|
--------------------------|--------------------------|-------------------------|
--------------------------|--------------------------|-------------------------|
--9--9--9--9--9--9--9--9--|--9--9--9--9--9--9--9--9--|--9----9--9--9--9--9--9--|
--7--7--7--7--7--7--7--7--|--7--7--7--7--7--7--7--7--|--7----7--7--7--7--7--7--|


  PM PM PM PM                                                                   
  E  E  E  E  E  E  E  E     Q    E   E  E   E  E  E     H        E  E  E   E   
--------------------------|---------------------------|------------------------|
--------------------------|---------------------------|------------------------|
--------------------------|---------------------------|------------------------|
--------------------------|------------------------2--|--L--------L------------|
--9--9--9--9--9--9--9--9--|------------------------0--|--L--------L------------|
--7--7--7--7--7--7--7--7--|--0----3b--0--3b--0--3-----|--------------0--3b--0--|


  Q    E   E  E   E  E  E     H        E  E  E   E   
---------------------------|------------------------|
---------------------------|------------------------|
---------------------------|------------------------|
------------------------2--|--L--------L------------|
------------------------0--|--L--------L------------|
--L----3b--0--3b--0--3-----|--------------0--3b--0--|


                                                       PM PM PM PM PM PM PM PM  
  Q    E   E  E   E  E  E     H        E  E  E   E     E  E  E  E  E  E  E  E   
---------------------------|------------------------|--------------------------|
---------------------------|------------------------|--------------------------|
---------------------------|------------------------|--------------------------|
------------------------2--|--L--------L---------2--|--4--4--4--4--4--4--4--4--|
------------------------0--|--L--------L---------0--|--2--2--2--2--2--2--2--2--|
--L----3b--0--3b--0--3-----|--------------0--3b-----|--------------------------|


  PM PM PM PM PM PM PM            PM PM PM PM PM PM    PM PM PM PM              
  E  E  E  E  E  E  E  E     Q    E  E  E  E  E  E     E  E  E  E  E  E  E  E   
--------------------------|-------------------------|--------------------------|
--------------------------|-------------------------|--------------------------|
--------------------------|-------------------------|--------------------------|
--4--4--4--4--4--4--4--4--|--4----4--4--4--4--4--4--|--4--4--4--4--4--4--4--4--|
--2--2--2--2--2--2--2--2--|--2----2--2--2--2--2--2--|--2--2--2--2--2--2--2--2--|
--------------------------|-------------------------|--------------------------|


this is just another way to play the intro solo with different fingerings:
                                                            tr               
   Q.     H        E      E  E   E  Q    E  Q        Q.     H            E   
----------------------|--------------------------|-----------------------L--|
--10------9--------L--|--10--9--10--9----7--5----|--10------9(10)--------L--|
----------------------|--------------------------|--------------------------|
----------------------|--------------------------|--------------------------|
----------------------|--------------------------|--------------------------|
----------------------|--------------------------|--------------------------|


                                    tr                                       
   E  E   E  Q    E  Q       Q.     H           E     E  E  E  Q    E  Q     
--------------------------|------------------------|------------------------|
--10--9--10--9----7-------|------------------------|------------------------|
---------------------9----|--9------8(9)--------L--|--9--8--9--8----6-------|
--------------------------|------------------------|-------------------9----|
--------------------------|------------------------|------------------------|
--------------------------|------------------------|------------------------|


         tr                                                           
  Q.     H           E     E  E  E  Q    E  Q       W                 
------------------------|------------------------|-------------------|
------------------------|------------------------|-------------------|
--9------8(9)--------L--|--9--8--9--8----6-------|-------------------|
------------------------|-------------------9----|--9----------------|
------------------------|------------------------|--7----------------|
------------------------|------------------------|--0----------------|


  PM PM PM PM PM PM PM PM PM PM PM PM                      
  E  S  S  E  S  S  E  S  S  E  S  S     W                 
--------------------------------------|-------------------|
--------------------------------------|-------------------|
--------------------------------------|-------------------|
--9--9--9--9--9--9--9--9--9--9--9--9--|--9----------------|
--7--7--7--7--7--7--7--7--7--7--7--7--|--7----------------|
--0--0--0--0--0--0--0--0--0--0--0--0--|--0----------------|


  PM PM PM PM PM PM PM PM PM PM                               
                                |-3-|                         
  E  S  S  E  S  S  E  S  S  E  S S S    E  E  H        Q     
--------------------------------------|----------------------|
--------------------------------------|----------------------|
--------------------------------------|----------------------|
--9--9--9--9--9--9--9--9--9--9--------|----------------------|
--7--7--7--7--7--7--7--7--7--7--9-9-9-|--9-----9--------L----|
--0--0--0--0--0--0--0--0--0--0--7-7-7-|--7-----7--------L----|


     PM PM PM PM PM                                       PM PM PM PM PM        
                       |-3-|                                                    
  E  E  E  E  E  E  E  S S S    E  E  H        Q       E  E  E  E  E  E  E  E   
-----------------------------|----------------------|--------------------------|
-----------------------------|----------------------|--------------------------|
-----------------------------|----------------------|--------------------------|
-----------------------------|----------------------|--------------------------|
--L--9--9--9--9--9--9--9-9-9-|--9-----9--------L----|--L--9--9--9--9--9--9--0--|
--L--7--7--7--7--7--7--7-7-7-|--7-----7--------L----|--L--7--7--7--7--7--7-----|


                      PM PM PM PM PM PM PM PM PM PM PM PM                      
  W                   E  S  S  E  S  S  E  S  S  E  S  S     W                 
-------------------|--------------------------------------|-------------------|
-------------------|--------------------------------------|-------------------|
-------------------|--------------------------------------|-------------------|
--9----------------|--9--9--9--9--9--9--9--9--9--9--9--9--|--9----------------|
--7----------------|--7--7--7--7--7--7--7--7--7--7--7--7--|--7----------------|
--0----------------|--0--0--0--0--0--0--0--0--0--0--0--0--|--0----------------|


  PM PM PM PM PM PM PM PM PM PM                               
                                |-3-|                         
  E  S  S  E  S  S  E  S  S  E  S S S    E  E  H        Q     
--------------------------------------|----------------------|
--------------------------------------|----------------------|
--------------------------------------|----------------------|
--9--9--9--9--9--9--9--9--9--9--------|----------------------|
--7--7--7--7--7--7--7--7--7--7--9-9-9-|--9-----9--------L----|
--0--0--0--0--0--0--0--0--0--0--7-7-7-|--7-----7--------L----|


     PM PM PM PM PM                                       PM PM PM PM PM        
                       |-3-|                                                    
  E  E  E  E  E  E  E  S S S    E  E  H        Q       E  E  E  E  E  E  E  E   
-----------------------------|----------------------|--------------------------|
-----------------------------|----------------------|--------------------------|
-----------------------------|----------------------|--------------------------|
-----------------------------|----------------------|--------------------------|
--L--9--9--9--9--9--9--9-9-9-|--9-----9--------L----|--L--9--9--9--9--9--9--0--|
--L--7--7--7--7--7--7--7-7-7-|--7-----7--------L----|--L--7--7--7--7--7--7--0--|


       PM PM PM    PM            PM PM PM PM PM PM         PM PM PM    PM     
  Q    E  E  E  E  E  E     Q    E  E  E  E  E  E     Q    E  E  E  E  E  E   
-------------------------|-------------------------|-------------------------|
-------------------------|-------------------------|-------------------------|
-------------------------|-------------------------|-------------------------|
----------------------9--|--L----9--9--9--9--9--9--|----------------------9--|
--7----7--7--7--7--7--7--|--L----7--7--7--7--7--7--|--7----7--7--7--7--7--7--|
--5----5--5--5--5--5--0--|--L----0--0--0--0--0--0--|--5----5--5--5--5--5--0--|


       PM PM PM PM PM PM         PM PM PM    PM            PM PM PM PM PM PM  
  Q    E  E  E  E  E  E     Q    E  E  E  E  E  E     Q    E  E  E  E  E  E   
-------------------------|-------------------------|-------------------------|
-------------------------|-------------------------|-------------------------|
-------------------------|-------------------------|-------------------------|
--L----9--9--9--9--9--9--|----------------------9--|--L----9--9--9--9--9--9--|
--L----7--7--7--7--7--7--|--7----7--7--7--7--7--7--|--L----7--7--7--7--7--7--|
--L----0--0--0--0--0--0--|--5----5--5--5--5--5--0--|--L----0--0--0--0--0--0--|


  PM PM PM PM PM PM PM PM    PM PM PM PM PM PM PM       PM   PM PM PM PM PM PM  
  E  E  E  E  E  E  E  E     E  E  E  E  E  E  E  E     Q    E  E  E  E  E  E   
--------------------------|--------------------------|-------------------------|
--------------------------|--------------------------|-------------------------|
--------------------------|--------------------------|-------------------------|
--------------------------|--------------------------|-------------------------|
--9--9--9--9--9--9--9--9--|--9--9--9--9--9--9--9--9--|--9----9--9--9--9--9--9--|
--7--7--7--7--7--7--7--7--|--7--7--7--7--7--7--7--7--|--7----7--7--7--7--7--7--|


  PM PM PM PM                                                                   
  E  E  E  E  E  E  E  E     Q    E   E  E   E  E  E     H        E  E  E   E   
--------------------------|---------------------------|------------------------|
--------------------------|---------------------------|------------------------|
--------------------------|---------------------------|------------------------|
--------------------------|------------------------2--|--L--------L------------|
--9--9--9--9--9--9--9--9--|------------------------0--|--L--------L------------|
--7--7--7--7--7--7--7--7--|--0----3b--0--3b--0--3-----|--------------0--3b--0--|


  Q    E   E  E   E  E  E     H        E  E  E   E   
---------------------------|------------------------|
---------------------------|------------------------|
---------------------------|------------------------|
------------------------2--|--L--------L------------|
------------------------0--|--L--------L------------|
--L----3b--0--3b--0--3-----|--------------0--3b--0--|


                                                       PM PM PM PM PM PM PM PM  
  Q    E   E  E   E  E  E     H        E  E  E   E     E  E  E  E  E  E  E  E   
---------------------------|------------------------|--------------------------|
---------------------------|------------------------|--------------------------|
---------------------------|------------------------|--------------------------|
------------------------2--|--L--------L---------2--|--4--4--4--4--4--4--4--4--|
------------------------0--|--L--------L---------0--|--2--2--2--2--2--2--2--2--|
--L----3b--0--3b--0--3-----|--------------0--3b-----|--------------------------|


  PM PM PM PM PM PM PM                 PM PM PM PM    PM PM PM PM              
  E  E  E  E  E  E  E  E     Q    Q    E  E  E  E     E  E  E  E  E  E  E  E   
--------------------------|------------------------|--------------------------|
--------------------------|------------------------|-----------------------0--|
--------------------------|------------------------|--------------------------|
--4--4--4--4--4--4--4--4--|--4----4----4--4--4--4--|--4--4--4--4--4--4--4-----|
--2--2--2--2--2--2--2--2--|--2----2----2--2--2--2--|--2--2--2--2--2--2--2-----|
--------------------------|------------------------|--------------------------|


      |---3--|    |--3--|    |--3--|         
   E  S   S  S E  S  S  S E  S  S  S E  S S  
--------------------------------------------|
--10--9h-10p-9-7--7h-9p-7-5--5h-7p-5-4--5-4-|
--------------------------------------------|
--------------------------------------------|
--------------------------------------------|
--------------------------------------------|


  |--3--|  |--3--|  |--3--|  |--3-|                     
  S  S  S  S  S  S  S  S  S  S S  S E     E    E    E   
------------------------------------------0------------|
--5p-4h-5p-4h-5p-4h-5p-4h-5p-4-5p-4-5\--2g5--2g5--2g5--|
-------------------------------------------------------|
-------------------------------------------------------|
-------------------------------------------------------|
-------------------------------------------------------|


     |--3--|    |--3--|    |--3--|    |--3--|  
  E  S  S  S E  S  S  S E  S  S  S E  S  S  S  
--0----------2----------4----------5----------|
--5--0h-5p-0----0h-5p-0----0h-5p-0----0h-5p-0-|
----------------------------------------------|
----------------------------------------------|
----------------------------------------------|
----------------------------------------------|


  S  S S  S E  E    Q    E   E    
--5b-0-5b-0----7br--7------------|
------------0------------0--10b--|
---------------------------------|
---------------------------------|
---------------------------------|
---------------------------------|


     messy junk - make up your own                                      
   S S                              S  S  S S  S  S  S S  S S S S  S S  
-----7-----------------------------------------------------------------|
---L-------------------------------10p-7----7--------------------------|
-----------------------------------------10---10p-9p-7-9p-7---7--------|
------------------------------------------------------------9---9p-7---|
---------------------------------------------------------------------9-|
-----------------------------------------------------------------------|


  S  S  S S  S S  S S  E  E   E   E      E   E   E   E  E  E  E  S S  
--------------------------------------|------------------------------|
--------------------------------------|------------------------------|
--------------------------------------|--7\--7\--7\--------------7-9-|
---------------3p-0-3p-0--3b--3b--3b--|--7\--7\--7\-----4--7--9------|
--9p-7s-5-7p-0------------------------|--7\--7\--7\--5---------------|
--------------------------------------|------------------------------|


  E   S  S  S S  Q     E   S  S  S S  
-----------------------7--10p-7----7-|
------7-10p-7---10b-------------10---|
--Lb----------9----------------------|
-------------------------------------|
-------------------------------------|
-------------------------------------|


   E    S  S  E    S  S  E    S  S  S   S  E    
--12---12-12-12---12-12-12---12-12-----12-12---|
--15b--------15b--------15b--------15b----15b--|
-----------------------------------------------|
-----------------------------------------------|
-----------------------------------------------|
-----------------------------------------------|


   S  S   S  S  S   S  S  Q        S  S  S  E    
---L-15p-12-12-15p-12----------------12-12------|
---L------------------15-15brb----15-------15b--|
------------------------------------------------|
------------------------------------------------|
------------------------------------------------|
------------------------------------------------|


   S  S  S  S  S  S  S  S  S  S  S  S  S  S  S  S  
--12----------------------------------------------|
-----15-12----12-12-------12----------------------|
-----------15-------15-14----15-14-12-14-12----12-|
--------------------------------------------14----|
--------------------------------------------------|
--------------------------------------------------|


   PM  PM  PM  PM  PM     \1/                                                 
   |---3---|   |---3---|                      |---3---|  |---3--|  |---3--|   
   E   E   E   E   E   E  H            Q      E    E  E  E   E  E  E   E  E   
-----------------------------------|-----------------------------------------|
-----------------------------------|--10b----10b--10--9--7---------7---------|
-----------------------------------|------------------------10--9-----10--9--|
--12------12-----------------------|-----------------------------------------|
------14------14--12--10-----------|-----------------------------------------|
--------------------------7--------|-----------------------------------------|


  |---3--|  |--3--|  |--3--|  |---3--|                                
  E   E  E  E  E  E  E  E  E  E  E   E     Q     Q     E   E  E   E   
----------------------------------------|----------------------------|
----------------------------------------|----------------------------|
--7b-----9--7---------------------------|----------------------------|
------9--------9--7-----7---------------|----------------------------|
---------------------9-----9--8--7------|--8b----8b----7------7------|
------------------------------------10--|-----------------10-----10--|


  \1/                      PM PM PM    PM            PM PM PM PM PM PM  
  W                   Q    E  E  E  E  E  E     Q    E  E  E  E  E  E   
-------------------|-------------------------|-------------------------|
-------------------|-------------------------|-------------------------|
-------------------|-------------------------|-------------------------|
-------------------|----------------------9--|--L----9--9--9--9--9--9--|
-------------------|--7----7--7--7--7--7--7--|--L----7--7--7--7--7--7--|
--7----------------|--5----5--5--5--5--5--0--|--L----0--0--0--0--0--0--|


       PM PM PM    PM            PM PM PM PM PM PM         PM PM PM    PM     
  Q    E  E  E  E  E  E     Q    E  E  E  E  E  E     Q    E  E  E  E  E  E   
-------------------------|-------------------------|-------------------------|
-------------------------|-------------------------|-------------------------|
-------------------------|-------------------------|-------------------------|
----------------------9--|--L----9--9--9--9--9--9--|----------------------9--|
--7----7--7--7--7--7--7--|--L----7--7--7--7--7--7--|--7----7--7--7--7--7--7--|
--5----5--5--5--5--5--0--|--L----0--0--0--0--0--0--|--5----5--5--5--5--5--0--|


       PM PM PM PM PM PM    PM PM PM PM PM PM PM PM    PM PM PM PM PM PM PM     
  Q    E  E  E  E  E  E     E  E  E  E  E  E  E  E     E  E  E  E  E  E  E  E   
-------------------------|--------------------------|--------------------------|
-------------------------|--------------------------|--------------------------|
-------------------------|--------------------------|--------------------------|
--L----9--9--9--9--9--9--|--------------------------|--------------------------|
--L----7--7--7--7--7--7--|--9--9--9--9--9--9--9--9--|--9--9--9--9--9--9--9--9--|
--L----0--0--0--0--0--0--|--7--7--7--7--7--7--7--7--|--7--7--7--7--7--7--7--7--|


  PM   PM PM PM PM PM PM    PM PM PM PM              
  Q    E  E  E  E  E  E     E  E  E  E  E  E  E  E   
-------------------------|--------------------------|
-------------------------|--------------------------|
-------------------------|--------------------------|
-------------------------|--------------------------|
--9----9--9--9--9--9--9--|--9--9--9--9--9--9--9--9--|
--7----7--7--7--7--7--7--|--7--7--7--7--7--7--7--7--|


  Q    E   E  E   E  E  E     Q    Q.     E  E   E   
---------------------------|------------------------|
---------------------------|------------------------|
---------------------------|------------------------|
------------------------2--|--L---------------------|
------------------------0--|--L---------------------|
--0----3b--0--3b--0--3-----|--------------0--3b--0--|


  Q    E   E  E   E  E  E     Q    Q.     E  E   E   
---------------------------|------------------------|
---------------------------|------------------------|
---------------------------|------------------------|
------------------------2--|--L---------------------|
------------------------0--|--L---------------------|
--L----3b--0--3b--0--3-----|--------------0--3b--0--|


  Q    E   E  E   E  E  E     Q    Q.     E  E   E   
---------------------------|------------------------|
---------------------------|------------------------|
---------------------------|------------------------|
------------------------2--|--L---------------------|
------------------------0--|--L---------------------|
--L----3b--0--3b--0--3-----|--------------0--3b--0--|


  Q    E   E  E   E  E  E     Q    Q    E  E   E  E   
---------------------------|-------------------------|
---------------------------|-------------------------|
---------------------------|-------------------------|
------------------------2--|--L-------------------2--|
------------------------0--|--L-------------------2--|
--L----3b--0--3b--0--3-----|------------0--3b--0--0--|


                                                           PM     PM            
  E  E  E  E  E  E  E  E     H        E  E  E   E     Q    E   E  E   E  E  E   
--------------------------|------------------------|---------------------------|
--------------------------|------------------------|---------------------------|
-----------------------2--|--L---------------------|---------------------------|
--L--------------------2--|--L--------2------------|------------------------2--|
--L--------------------0--|--L--------0------------|--2---------------------0--|
--L--0--0--0--0--0--0-----|--------------0--3b--0--|--0----3b--0--3b--0--3-----|


                                PM     PM                                     
  H        E  E  E   E     Q    E   E  E   E  E  E     H        E  E  E   E   
------------------------|---------------------------|------------------------|
------------------------|---------------------------|------------------------|
------------------------|---------------------------|------------------------|
--L--------2------------|------------------------2--|--L--------L------------|
--L--------0------------|--2---------------------0--|--L--------L------------|
--------------0--3b--0--|--0----3b--0--3b--0--3-----|--------------0--3b--0--|


       PM     PM                                     
  Q    E   E  E   E  E  E     H        E  E  E   E   
---------------------------|------------------------|
---------------------------|------------------------|
---------------------------|------------------------|
------------------------2--|--L--------L------------|
------------------------0--|--L--------L------------|
--L----3b--0--3b--0--3-----|--------------0--3b--0--|


       PM     PM                             PM      
  Q    E   E  E   E  E  E     H        E  E  E   E   
---------------------------|------------------------|
---------------------------|------------------------|
---------------------------|------------------------|
------------------------2--|--L--------L------------|
------------------------0--|--L--------L------------|
--L----3b--0--3b--0--3-----|--------------0--3b--0--|


       PM     PM                             PM      
  Q    E   E  E   E  E  E     H        E  E  E   E   
---------------------------|------------------------|
---------------------------|------------------------|
---------------------------|------------------------|
------------------------2--|--L--------L------------|
------------------------0--|--L--------L------------|
--L----3b--0--3b--0--3-----|--------------0--3b--0--|


       PM     PM                             PM      
  Q    E   E  E   E  E  E     H        E  E  E   E   
---------------------------|------------------------|
---------------------------|------------------------|
---------------------------|------------------------|
------------------------2--|--L--------L------------|
------------------------0--|--L--------L------------|
--L----3b--0--3b--0--3-----|--------------0--3b--0--|


       PM     PM                             PM      
  Q    E   E  E   E  E  E     H        E  E  E   E   
---------------------------|------------------------|
---------------------------|------------------------|
---------------------------|------------------------|
------------------------2--|--L--------L------------|
------------------------0--|--L--------L------------|
--L----3b--0--3b--0--3-----|--------------0--3b--0--|


       PM     PM                             PM        PM PM PM PM PM PM PM PM  
  Q    E   E  E   E  E  E     H        E  E  E   E     E  E  E  E  E  E  E  E   
---------------------------|------------------------|--------------------------|
---------------------------|------------------------|--------------------------|
---------------------------|------------------------|--------------------------|
------------------------2--|--L--------L------------|--4--4--4--4--4--4--4--4--|
------------------------0--|--L--------L------------|--2--2--2--2--2--2--2--2--|
--L----3b--0--3b--0--3-----|--------------0--3b--0--|--------------------------|


  PM PM PM PM PM PM PM            PM PM PM PM PM PM    PM PM PM PM              
  E  E  E  E  E  E  E  E     Q    E  E  E  E  E  E     E  E  E  E  E  E  E  E   
--------------------------|-------------------------|--------------------------|
--------------------------|-------------------------|--------------------------|
--------------------------|-------------------------|--------------------------|
--4--4--4--4--4--4--4--4--|--4----4--4--4--4--4--4--|--4--4--4--4--4--4--4--4--|
--2--2--2--2--2--2--2--2--|--2----2--2--2--2--2--2--|--2--2--2--2--2--2--2--2--|
--------------------------|-------------------------|--------------------------|


  E  E  E  S E  E.  Q       E  E  E  S E  E.  Q       E  E  E  S E  E.  Q     
-------------------------|-------------------------|-------------------------|
-------------------------|-------------------------|-------------------------|
-------------------------|-------------------------|-------------------------|
--9--9--9--9-9-----------|--9--9--9--9-9-----------|--9--9--9--9-9-----------|
--7--7--7--7-7-----------|--7--7--7--7-7-----------|--7--7--7--7-7-----------|
-------------------------|-------------------------|-------------------------|


  E  E  E  S E  E.  Q      
-------------------------||
-------------------------||
-------------------------||
--9--9--9--9-9-----------||
--7--7--7--7-7-----------||
-------------------------||


=============================================================================


Guitar 2 (intro part)



                                     Q.     H        E   
D||-------|-------|-------|-------|--5------4--------L--|
A||-------|-------|-------|-------|---------------------|
F||-------|-------|-------|-------|---------------------|
C||-------|-------|-------|-------|---------------------|
G||-------|-------|-------|-------|---------------------|
D||-------|-------|-------|-------|---------------------|


                                  tr                                       
  E  E  E  Q    E  Q       Q.     H           E     E  E  E  Q    E  Q     
--5--4--5--4------------|--5------4(5)--------L--|--5--4--5--4------------|
----------------7--5----|------------------------|----------------7--5----|
------------------------|------------------------|------------------------|
------------------------|------------------------|------------------------|
------------------------|------------------------|------------------------|
------------------------|------------------------|------------------------|


         tr                                                tr              
  Q.     H           E     E  E  E  Q    E  Q       Q.     H           E   
------------------------|------------------------|------------------------|
--5------4(5)--------L--|--5--4--5--4------------|--5------4(5)--------L--|
------------------------|----------------6--4----|------------------------|
------------------------|------------------------|------------------------|
------------------------|------------------------|------------------------|
------------------------|------------------------|------------------------|


  E  E  E  Q    E  Q                                                     
------------------------|-------|-------|-------|-------|-------|-------|
--5--4--5--4------------|-------|-------|-------|-------|-------|-------|
----------------6--4----|-------|-------|-------|-------|-------|-------|
------------------------|-------|-------|-------|-------|-------|-------|
------------------------|-------|-------|-------|-------|-------|-------|



Duration Legend
---------------
W - whole
H - half
Q - quarter
E - 8th
S - 16th
T - 32nd
X - 64th
. - note dotted
|-n-|  - n-tuplets


Tablature Legend
----------------
L - tied note
x - dead note
g - grace note
(n) - ghost note
> - accentuded note
NH - natural harmonic
AH - artificial harmonic
TH - tapped harmonic
SH - semi harmonic
PH - pitch harmonic
h - hammer on
p - pull off
b - bend
br - bendRelease
pb - preBend
pbr - preBendRelease
brb - bendReleaseBend
\n/ - tremolo bar dip
\n - tremolo bar dive
-/n - tremolo bar Release up
/n\ - tremolo bar inverted dip
/n - tremolo bar return
-\n - tremolo bar Release down
S - shift slide
s - legato slide
/ -  slide into from below or out of upwards
\ -  slide into from above or out of downwards
~ - vibrato
W - wide vibrato
tr - trill
TP - tremolo picking
T - tapping
S - slap
P - pop
< - fade in
^ - brush up
v - brush down
comments
We did not receive enough feedback on this tab! Please rate:
print report bad tab
1 2 3 4 5
I want to post or [tab]
guest
You may want to rate the tab now too:
select rating
Please do not post tabs as comments. Select "correction" instead!