Oops, an error
Loading. Please wait.

Shout At The Devil Tab

ver1
ver1

Album

Whole song

Interactive

Video

More versions @911Tabs.com
29,275 views 36 this week
3 commentsread comments
1 2 3 4 5
worth learning
x 3
Autoscroll
+/-
esc
set tempo
stop
Contributor
Hey! There's an official Ultimate Guitar app which is ideal
for learning songs when you're away from computer. Get the app
WARNING: You are trying to view
                                    content from Ultimate-Guitar.com
                                    in an unauthorized application,
                                    which is prohibited.

                                    Please use an official Ultimate
                                    Guitar Tabs application for iPhone,
                                    iPad or Android to access legitimate
                                    chords, guitar, bass, and drum tabs
                                    from Ultimate-Guitar.com database.

                                    Type "ultimate guitar tabs" in Apple
                                    App Store's or Android Market's
                                    search to find the application.
Band - Motley Crue
Album - Shout at the Devil

1. IN THE BEGINNING
2. SHOUT AT THE DEVIL
3. LOOKS THAT KILL
4. BASTARD
5. GOD BLESS THE CHILDREN OF THE BEAST
6. HELTER SKELTER
7. RED HOT
8. TOO YOUNG TO FALL IN LOVE
9. KNOCK 'EM DEAD KID
10. TEN SECONDS TO LOVE
11. DANGER
12. SHOUT AT THE DEVIL (DEMO)
13. LOOKS THAT KILL (DEMO)
14. HOTTER THAN HELL
15. I WILL SURVIVE
16. TOO YOUNG TO FALL IN LOVE (DEMO)


1. IN THE BEGINNING
its only vocals and its hard to understand the guy


2. SHOUT AT THE DEVIL
drop D tuning- DGCFAD

make sure to play in drop D, or else it wont sound the same, and then
you'll be emailing me corrections that only sound good in standard tuning.

/ -slide up
\- slide down
h -hammer on
^ -use bar

intro- x2, hold then slide
-------------------|
-------------------|
-----5/-------7/---|
-----5/-------7/---|
-0-0------0-0------|
-------------------|

-------------------------------------|
-------------------------------------|
-----5-------7-------5-----------7-5-|
-----5-------7-------5------5--------|
-0-0-----0-0----0-0-----5-7---7------|
-------------------------------------|

-------------------------------------|
-------------------------------------|
-----5--------7------5-----------7-5-|
-----5--------7------5------5------5-|
-0-0----0-0-----0-0-----5-7---7------|
-------------------------------------|

intro lead
-----------------------------|
-11~--10~--8~---11~--13~--8~-|
-----------------------------|
-----------------------------|
-----------------------------|
-----------------------------|

gtr 2
------------------------------------|
------------------------------------|
-----5------7-------5-----------7-5-|
-----5------7-------5------5------5-|
-0-0----0-0-----0-0----5-7---7------|
------------------------------------|

-------------------------------------|
-------------------------------------|
-----5------7-------5--------------5-|
-----5------7-------5------5-------5-|
-0-0-----0-0----0-0----5-7---5-0-3---|
-------------------------------------|

verse -x4            on 4th play this
----------------|----------------------|
----------------|----------------------|
-7-5-2--5-7-5-2-|-7-5-2--5-7-2-7-7-5-2-|
-7-5-2--5-7-5-2-|-7-5-2--5-7-2-7-7-5-2-|
-5-3-0--3-5-3-0-|-5-3-0--3-5-0-5-5-3-0-|
----------------|----------------------|

chorus
-------------------------------------|
-------------------------------------|
-----5------7-------5------------7-5-|
-----5------7-------5-------5------5-|
-0-0----0-0-----0-0-----5-7---7------|
-------------------------------------|

-------------------------------------|
-------------------------------------|
-----5-------7------5------------7-5-|
-----5-------7------5-------5--------|
-0-0-----0-0----0-0-----5-7---7------|
-------------------------------------|

verse -x4
----------------|
----------------|
-7-5-2--5-7-5-2-|
-7-5-2--5-7-5-2-|
-5-3-0--3-5-3-0-|
----------------|

on 4th play this
----------------------------------|
------------------------------3---|
-7-5-2--5-7-2-2-5-5---5-------0---|
-7-5-2--5-7-2-2-5-5---5-----------|
-5-3-0--3-5-0-0-3-3-3---3-2-2---2-|
----------------------------------|

chorus
-------------------------------------|
-------------------------------------|
-----5------7-------5------------7-5-|
-----5------7-------5-------5------5-|
-0-0----0-0-----0-0-----5-7---7------|
-------------------------------------|

------------------------------------|
------------------------------------|
-----5------7-------5-----------7-5-|
-----5------7-------5-------5-------|
-0-0----0-0-----0-0-----5-7---7-----|
------------------------------------|

solo
gtr 2 under the lead
------------------------------|
------------------------------|
------------------------------|
-2-2---2-2---2-2--------------|
-2-2---2-2---2-2--------0-2-3-|
-0-0---0-0---0-0--0-2-3-------|

------------------------------|
------------------------------|
------------------------------|
-2-2---2-2---2-2--------------|
-2-2---2-2---2-2----------0-3-|
-0-0---0-0---0-0--0-2-3-0-----|

gtr 1      ride the bar in both directions
------------|----------------|------------|
-8~-7~-5~---|----------------|------------|
------------12h15h12h15h12h15h-----12^15^-|
------------------------------------------|
------------------------------------------|
------------------------------------------|

gtr 2
--------------------------------|
--------------------------------|
--------------------------------|
-2-2---2-2---2-2----------------|
-2-2---2-2---2-2----------0-2-3-|
-0-0---0-0---0-0---0-2-3--------|

gtr 1
------------------------------------------|
-8^---10^---------------------------------|
----------12^-2----2^-2^-2^-2^-2^-2^-2-6/-|
-------------------------------------2-6/-|
-------------------------------------0-4/-|
------------------------------------------|

gtr 2
-----------------|
-----------------|
-----------------|
-2-2---2-2---2-2-|
-2-2---2-2---2-2-|
-0-0---0-0---0-0-|

verse-x4
(slide from end of solo, into the regular verse)
-|--------------|
-|--------------|
-7/5-2--5-7-5-2-|
-7/5-2--5-7-5-2-|
-5/3-0--3-5-3-0-|
----------------|

on 4th play this
----------------------------------|
------------------------------3---|
-7-5-2--5-7-2-2-5-5---5-------0---|
-7-5-2--5-7-2-2-5-5---5-----------|
-5-3-0--3-5-0-0-3-3-3---3-2-2---2-|
----------------------------------|

-------------------------------------|
-------------------------------------|
-----5------7-------5------------7-5-|
-----5------7-------5-------5------5-|
-0-0----0-0-----0-0-----5-7---7------|
-------------------------------------|

--------------------------------------|
--------------------------------------|
-----5-------7-------5-----------7-5^-|
-----5-------7-------5-------5--------|
-0-0-----0-0-----0-0-----5-7---7------|
--------------------------------------|

--break--

------------------------------------------------|
------------------------------------------------|
----------7-5~------5-----7-----5-----------7-5-|
------5-------------5-----7-----5------5------5-|
-\5-7---7-------0-0---0-0---0-0---5-7---7-------|
------------------------------------------------|

---------------------------------------|
---------------------------------------|
-----5-------7-------5------------7-5^-|
-----5-------7-------5-------5---------|
-0-0-----0-0-----0-0-----5-7---7-------|
---------------------------------------|

outro- repeat and fade after 3 times
--------------------------------|
--------------------------------|
--------4/5------------6/7------|
--------4/5------------6/7------|
-0-0-0--2/3--0-0-0-0-0-4/5--0-0-|
--------------------------------|

------------------------------|
------------------------------|
--------4/5---------------7-5-|
--------4/5----------5------5-|
-0-0-0--2/3--0-0-5-7---7------|
------------------------------|

lead over outro -x2, fade halfway through on the 2nd time
-----------------------------|
-11~--10~--8~---11~--13~--8~-|
-----------------------------|
-----------------------------|
-----------------------------|
-----------------------------|


3. LOOKS THAT KILL
Main Riff
D|-----------------|-----------------|-----------------|-----------------|
A|-----------------|-----------------|-----------------|-----------------|
F|-----9-----9-----|-7-----7-----7\6-|-----9-----9-----|-7-----7-----7\6-|
C|-----7-----7-----|-5-----5-----5\4-|-----7-----7-----|-5-----5-----5\4-|
G|-0-0---0-0---0-0-|---0-0---0-0-----|-0-0---0-0---0-0-|---0-0---0-0-----|
D|-----------------|-----------------|-----------------|-----------------|


D|-----------------|-----------------|-----------------|-----------------|
A|-----------------|-----------------|-----------------|-----------------|
F|-----9-----9-----|-7-----7-----7\6-|-----9-----9-----|-7-----7-----7\6-|
C|-----7-----7-----|-5-----5-----5\4-|-----7-----7-----|-5-----5-----5\4-|
G|-0-0---0-0---0-0-|---0-0---0-0-----|-0-0---0-0---0-0-|---0-0---0-0-----|
D|-----------------|-----------------|-----------------|-----------------|
 |
 |                                            vib.
D|-----------------|-----------------|-22b(24)~~~~~~~~~|-(24)~~~~~~~~~~~~|
A|-----------------|-----------------|-----------------|-----------------|
F|-----------------|-----------------|-----------------|-----------------|
C|-2---------------|(2)--------------|-----------------|-----------------|
G|-0---------------|(0)--------------|-----------------|-----------------|
D|-----------------|-----------------|-----------------|-----------------|


                                     w/bar
Before the Chorus                       -.5 -.5 -.5   -.5 -.5 -.5 -.5
D|-----------------|-----------------|---------------------------------|
A|-----------------|-----------------|---\/--\/--\/--|-\/--\/--\/--\/--|
F|-----9-----9-----|-7-----7-----7\6-|-5-(5)-(5)-(5)-|-(5)-(5)-(5)-(5)-|
C|-----7-----7-----|-5-----5-----5\4-|-3-(3)-(3)-(3)-|-(3)-(3)-(3)-(3)-|
G|-0-0---0-0---0-0-|---0-0---0-0-----|---------------|-----------------|
D|-----------------|-----------------|---------------|-----------------|


Chorus
D|-------------|--------|-----------|-----------|-------------------|
A|-1-1--1-1----|----5-6-|-(6)---6-7-|-(7)---7-8-|-(8)-6-6-6-6-6-6---|
F|-0-0--0-0----|----5-5-|-(5)---5-5-|-(5)---5-5-|-(5)-5-5-5-5-5-5---|
C|-3-3--3-3--2-|----2-3-|-(3)---3-4-|-(4)---4-5-|-(5)-3-3-3-3-3-3-0-|
G|-------------|-0------|-----0-----|-----0-----|-------------------|
D|-------------|--------|-----------|-----------|-------------------|


D|---------|-----------|-----------|-------------------|
A|-----5-6-|-(6)---6-7-|-(7)---7-8-|-(8)-6-6-6-6-6-6---|
F|-----5-5-|-(5)---5-5-|-(5)---5-5-|-(5)-5-5-5-5-5-5---|
C|-2---2-3-|-(3)---3-4-|-(4)---4-5-|-(5)-3-3-3-3-3-3-0-|
G|---0-----|-----0-----|-----0-----|-------------------|
D|---------|-----------|-----------|-------------------|

Bridge
D|-----------------|---------------|-------------|
A|-10--9----13--12-|-8--7----10--9-|-6--5---8--7-|
F|-9---9--12----12-|-8--7--10----9-|-5--5--7---7-|
C|-7---6--12----9--|-5--4--10----6-|-3--2--7---4-|
G|--------10-------|-------8-------|-------5-----|
D|-----------------|---------------|-------------|

Solo
D|-----------------|------------------------|
A|-----------------|------------------------|
F|-7-7-7-7-7-7-7-7-|-7--7--7--7--7--7--7--7-|
C|-5-5-5-5-5-5-5-5-|-5--5--5--5--5--5--5--5-|
G|-----------------|------------------------|
D|-----------------|------------------------|
 |
 |
D|-----------------|------------------------|
A|-----------------|-----6-5-8-5--8(10)r8p5-|
F|-----------------|-5-4--------------------|
C|-------------6-7-|------------------------|
G|---------8-7-----|------------------------|
D|-----------------|------------------------|

D|-----------------------------------------|---5------------------------|
A|-8p5h8p5-5h8p5h8p5h8p5h8p5h8p5h8p5-8b(10)|(8)--8p5---5----------------|
F|-----------------------------------------|---------7---7-5-7(9)r(7)p5-|
C|-----------------------------------------|----------------------------|
G|-----------------------------------------|----------------------------|
D|-----------------------------------------|----------------------------|

  p.h.        p.h.       p.h.       p.h.
D|------------------------------|-----------|------------------|
A|------------------------------|-----------|------------------|
F|-7(9)r(7)p5-7(9)r(7)p5--------|-----------|-8-7-8-7-5---7b(9)|
C|-----------------------7------|-----------|-----------7------|
G|-------------------------5b(7)|(5)-5--5p4-|------------------|
D|------------------------------|-----------|------------------|


D|------------------------------|-----------------------|-------------|----|
A|------------------------------|-----------------------|-6-----------|(6)-|
F|----------9---------9---------|-7--------7--------7\6-|-5-----------|(5)-|
C|----------7---------7---------|-5--------5--------5\4-|-3-----------|(3)-|
G|---0---0-----0---0-----0---0--|----0--0-----0--0------|-------------|----|
D|------------------------------|-----------------------|-------------|----|
 |
 |
D|----5-------------------------|-----------------------|-------------|----|
A|------8p5---5-----------------|-----------------------|-------------|----|
F|(7)-------7---8-7-5-7-7-5-----|-----------------------|-------------|----|
C|--------------------------7-5-|-5---------------------|-------------|----|
G|------------------------------|---7-6-5\3---------5---|gradual-bend-|----|
C|------------------------------|-----------5p3-5-5---5-|-5b(8)-------|(5)-|


4. BASTARD
Legend:

<>        = artificial harmonics
()        = natural harmonics
^         = pull-off & hammer-on
/\        = slide
~~~       = vibrato
...       = palm mute


Intro:
D-|------------------------(5)-|-----------------------|----------------------|
A-|--------------------(5)-----|-----------------------|----------------------|
F-|----------------------------|*-2----------2---------|-2----------2---------|
C-|-------(5)-----(5)----------|*-0--3^0-0-2-0---------|-0--3^0-0-2-0---------|
G-|-12\-------(5)--------------|-----------------3-2-3-|---------------3-2----|
D-|----------------------------|-----------------------|-------------------3--|

   ____________________________________________
________________________
  | 1.                                          | 2.
D-|-----------------------|---------------------|------------------------|
A-|-----------------------|---------------------|------------------------|
F-|-----------------------|--------------------*|------------------------|
C-|-2----------2----------|-2----------2-------*|-2---4--5--4--5--4--2---|
G-|-0--3^0-0-2-0---3-2----|-0--3^0-0-2-0--3-2-3-|-0---2--3--2--3--2--0---|
D-|--------------------3--|---------------------|------------------------|

   Here the Gtr.1 does this, while the Gtr.2 plays the
2. part.
D-|--------------------------||
A-|--------------------------||
F-|-9-11-12-11-12-11-12-11-9-||
C-|--------------------------||
G-|--------------------------||
D-|--------------------------||

              ____________________
____________________________
    Verse:   | 1.                 | 2.

D-|----------|--------------------|----------------------------||
A-|----------|--------------------|----------------------------||
F-|*---------|-------------10--9-*|----------------------------||
C-|*-7\------|--5-6-7\-----10--9-*|-5-6-7\----2-3-0-2----------||
G-|--7\------|--5-6-7\-----8---7--|-5-6-7\------------3-5-2-3--||
D-|--5\------|--3-4-5\------------|-3-4-5\---------------------||


    Chorus:
D-|-----------------------------|---------------------|
A-|-----------------------------|---------------------|
F-|*---------------------------*|*------2----------2-*|
C-|*--2--4-5---4-5---4-5--4--2-*|*------0--3-0-0-2-0-*|
G-|---0--2-3---2-3---2-3--2--0--|-3-2-3---------------|
D-|-----------------------------|---------------------|


D-|---------------------------------||
A-|---------------------------------||
F-|---------------------------------||
C-|-------2----4-5--4-5--4-5--4--2--||
G-|-3-2---0----2-3--2-3--2-3--2--0--||
D-|-----3---------------------------||


    Bridge:                           Div Gtr.1
D-|-----------------------|---------------|--12-13-------12-----------------|
A-|--10----10--12-13--12--|-12-13-14-13---|--12-13-10_15-12--13-10_15-12-13-|
F-|*-9-----9---11-12--11--|-11-12-14-12---|------------------12-------11-12*|
C-|*----------------------|---------------|--------------------------------*|
G-|-----------------------|---------------|---------------------------------|
D-|-----------------------|---------------|---------------------------------|
                                          Gtr.2

    Solo:  ½+-
D-|---------------------|----------------------------|---------------------|
A-|---------------------|----------------------------|---------------------|
F-|-------<12>---^10----|--9-10-12--9-10-12--9-10-12-|-9-10-10\9--9\7--7\5-|
C-|------------------12-|----------------------------|---------------------|
G-|---------------------|----------------------------|---------------------|
D-|---------------------|----------------------------|---------------------|

               1+-
D-|------------------------|------------------------------7-8-10-7-8-10----|
A-|------------------------|-------------------------8-10------------------|
F-|-5----5--7-<7>---^5--7--|------------------7-9-10-----------------------|
C-|---7--------------------|-----------7-9-10------------------------------|
G-|------------------------|----7-8-10-------------------------------------|
D-|------------------------|-10--------------------------------------------|


D-|-8-7----7------|-12-13-15--12-13-15--12-13-15--12-13-15-/17-17-17-17----|
A-|-----10---10-8-|--------------------------------------------------------|
F-|---------------|--------------------------------------------------------|
C-|---------------|--------------------------------------------------------|
G-|---------------|--------------------------------------------------------|
D-|---------------|--------------------------------------------------------|

   End:
D-|------------------------------------------------------------------------|
A-|------------------------------------------------------------------------|
F-|-------------Repeat a lot-----------------------------------------------|
C-|--7--7-7-7-7------------------------------------------------2-2-2-2-2-2-|
G-|--5--5-5-5-5--------3-3-3-3---5-5-5-5--7-7--5-5--3-3--2-2---0-0-0-0-0-0-|
D-|------------------------------------------------------------------------|


"How To Play It"
[Intro]
[Verse]
[Chorus]
[Verse]
[Chorus, The first compass]
[Bridge]
[Solo]
[Chorus, first compass 2 times, compasses 2 & 3, 2
times]
[End]


5. GOD BLESS THE CHILDREN OF THE BEAST
/-slide down
h- hammer on
p- pull off
^- let ring

play this one in standard tuning

gtr 1 plays continuosly

gtr 1
-------------0-----------------------0------------------------0---------------|
-------0--------0-----5--------0--------0-----5---------0--------0-----0------|
----5-----5--------5--------5-----5--------5---------4-----4--------4---------|
-7-----------------------7------------------------5---------------------------|
------------------------------------------------------------------------------|
------------------------------------------------------------------------------|

-------------0------------------------0-----------------------0----------------|
-------0--------0-----0---------0--------0-----0--------0--------0-----0-------|
----4-----4--------4---------2-----2--------2--------2-----2--------2----------|
-5------------------------3-----------------------3----------------------------|
-------------------------------------------------------------------------------|
-------------------------------------------------------------------------------|

               on the last bit finish with Am when they say god bless...
-------------0------------------------------------|---|
-------0--------0-----0--------0------------0-----|-1-|
----1-----1--------1--------1-----1/-----4-----4--|-2-|
-2-----------------------2------------6-----------|-2-|
--------------------------------------------------|-0-|
--------------------------------------------------|---|

gtr 2
--------------------------------------------------------------------------------|
--------------------------------------------------------------------------------|
--5-------5-7-4-5---4----------------5-7-4-5---4----------------5-7-4-5---4-----|
------------------7---5-7------5-------------7---5-7-------3------------7---5-7-|
--------------------------------------------------------------------------------|
--------------------------------------------------------------------------------|

--------------------------------------------------------------------|
-5----5-6---5----------------5-6---5----------------5-6---5---------|
----------7---5-7-4-5-----4------7---5-7-4-5-----2------7---5-7-4-5-|
--------------------------------------------------------------------|
--------------------------------------------------------------------|
--------------------------------------------------------------------|

-------------------------------------------------------------------------------|
-----------------------------------------------------------15------17-15---18--|
--------------5-4---10-9---12-10----14-12---16-14---17-16------17--------------|
-2-3-2---6-3-------------------------------------------------------------------|
-------------------------------------------------------------------------------|
-------------------------------------------------------------------------------|

----------------------------------------------------------15-17----|
------------6-5--10-9--12-10---13-12--15-13--17-15--18-17-------18-|
-1-2-1--4-2--------------------------------------------------------|
-------------------------------------------------------------------|
-------------------------------------------------------------------|
-------------------------------------------------------------------|

----------------------------------------------------|
-17h18p17h18p17h18p17h18-17h18p17h18p17h18p17h18----|
----------------------------------------------------|
----------------------------------------------------|
----------------------------------------------------|
----------------------------------------------------|

------------------------------------------------|
----15-17-15-------------------15-17-15--13--12-|
-17----------17-16----------17------------------|
--------------------15--------------------------|
------------------------------------------------|
------------------------------------------------|

--15h17p15h17p15h17p15h17--15h17p15h17p15h17p15h17---|
-----------------------------------------------------|
-----------------------------------------------------|
-----------------------------------------------------|
-----------------------------------------------------|
-----------------------------------------------------|

--------15------------------------15-13--12--10-|
--17-18----18--17--15-------17-18---------------|
-----------------------14-----------------------|
------------------------------------------------|
------------------------------------------------|
------------------------------------------------|

-----------------------------------12^-------------12--12------------12/-17^-|
------------12----13------------13-----------9--12--------13------13---------|
-----9--13-----------14------14------------9-----------------14--------------|
--9---------------------14---------------------------------------------------|
-----------------------------------------------------------------------------|
-----------------------------------------------------------------------------|

----------------------------------------------------10-----------10/-15^-|
--12-----------12--15^-----10-------------10--13^------12-----12---------|
-----12------12---------------10-------10-----------------12-------------|
--------12-----------------------10--------------------------------------|
-------------------------------------------------------------------------|
-------------------------------------------------------------------------|

--8------------8/--13^-|
----10------10---------|
-------10--------------|
-----------------------|
-----------------------|
-----------------------|

-----------------------------------12^-----12---------12-------12------|
-12--------12-------13----------13------------12---------12-------13---|
---13--------13--------14-----14------------------------------------14-|
--------------------------14----------------------14--------14---------|
-------14-------14-----------------------------------------------------|
-----------------------------------------------------------------------|

-----12/--17^----------------------------------------------------|
--13------------12-------------12--15^----10------------10---13^-|
-------------------12-------12---------------10------10----------|
----------------------12------------------------10---------------|
-----------------------------------------------------------------|
-----------------------------------------------------------------|

--10-------------10/--15^-----8-------------8/--13^-|
-----12------12-----------------10-------10---------|
--------12-------------------------10---------------|
----------------------------------------------------|
----------------------------------------------------|
----------------------------------------------------|

          god bless the childeren of the beast
-------------------------------------------------------|
--12-----------12--------------------------------------|
-------13---------13-----------13-------13-------------|
-----------14--------14-14--------14-------14------14^-|
-------------------------------------14--------14------|
-------------------------------------------------------|


6.HELTER SKELTER
b- bend
\- slide up
/- slide down
nh- natural harmonic
PM- palm mute
x- palm mute
h- hammer on
p- pull off
(#)- fret # in parenthesis is a ghost note
~- let ring
^- use bar

intro
--------------------------------------------------------------------|
--7-7-7-7-7-7-7-7-7-7-7-7-7-7-7-7---7-7-7-7-7-7-7-7-7-7-7-7-7-7-7-7-|
--9-9-9-9-9-9-9-9-9-9-9-9-9-9-9-9---9-9-9-9-9-9-9-9-9-9-9-9-9-9-9-9-|
--------------------------------------------------------------------|
--------------------------------------------------------------------|
--------------------------------------------------------------------|

--------------------------------------------------------------------|
--7-7-7-7-7-7-7-7-7-7-7-7-7-7-7-7---7-7-7-7-7-7-7-7-7-7-7-7-7-7-7-7-|
--9-9-9-9-9-9-9-9-9-9-9-9-9-9-9-9---8-8-8-8-8-8-8-8-8-8-8-8-8-8-8-8-|
--------------------------------------------------------------------|
--------------------------------------------------------------------|
--------------------------------------------------------------------|

                                                       nh
------------------------------------------------------------------------|
--7-7-7-7-7-7-7-7-7-7-7-7-7-7-7-7\--------------------------------------|
--7-7-7-7-7-7-7-7-7-7-7-7-7-7-7-7\---------------------4b---------------|
------------------------------------2----4-2----4----------0-4------4-4-|
------------------------------------0----0-0----0--4---------4------4-4-|
---------------------------------------------------2---------2------2-2-|

verse
 PM--------------------------|
-----------------------------|
-----------------------------|
--------------------------2--|
-------4-4-4-4-4-4-4-4-4--2--|
-------4-4-4-4-4-4-4-4-4--0--|
--0h2--2-2-2-2-2-2-2-2-2-----|

 PM-----------------------|
--------------------------|
--------------------------|
--------------------------|
-------4-4-4-4-4-4-4-4-4--|
-------4-4-4-4-4-4-4-4-4--|
--0h2--2-2-2-2-2-2-2-2-2--|

pre-chorus
-----------------------------------------|
-----------------------------------------|
-----------------------------------------|
-----------------------------------------|
--7-7-9-9-7-7-9-9--7-7-9-9--7-7-7-7/9--9-|
--5-5-5-5-5-5-5-5--5-5-5-5--5-5-5-5/7--7-|

gtr 2
--------------------------------------|
--------------------------------------|
--------------------------------------|
--7-----7-----7-7--7---7-7-7---7/9--9-|
--7-----7-----7-7--7---7-7-7---7/9--9-|
--5-----5-----5-5--5---5-5-5---5/7--7-|

gtr 1
---------------------|
---------------------|
-----4b-^-^p2--------|
---------------4--0--|
--4------------4--0--|
--2------------2-----|

chorus
  PM----|                   PM-----------------------------------------------------|
--------------------------------------------------------0-0-0-0-0-0-0-0-0-0--------|
------------------------------------------------------0-7-7-7-7-7-7-7-7-7-7b-------|
-----------2-1---------------------------------------------------------------x\----|
--4-4-6-6-------4-2-1----------------2-1-------------------------------------x\-0--|
--2-2-2-2--------------4-2--4-4-6-6-------4-2-1---------------------------------0--|
----------------------------2-2-2-2--------------4-2-------------------------------|

verse
 PM--------------------------|
-----------------------------|
-----------------------------|
--------------------------2--|
-------4-4-4-4-4-4-4-4-4--2--|
-------4-4-4-4-4-4-4-4-4--0--|
--0h2--2-2-2-2-2-2-2-2-2-----|

 PM-----------------------|
--------------------------|
--------------------------|
--------------------------|
-------4-4-4-4-4-4-4-4-4--|
-------4-4-4-4-4-4-4-4-4--|
--0h2--2-2-2-2-2-2-2-2-2--|

pre-chorus
-----------------------------------------|
-----------------------------------------|
-----------------------------------------|
-----------------------------------------|
--7-7-9-9-7-7-9-9--7-7-9-9--7-7-7-7/9--9-|
--5-5-5-5-5-5-5-5--5-5-5-5--5-5-5-5/7--7-|

gtr 2
--------------------------------------|
--------------------------------------|
--------------------------------------|
--7-----7-----7-7--7---7-7-7---7/9--9-|
--7-----7-----7-7--7---7-7-7---7/9--9-|
--5-----5-----5-5--5---5-5-5---5/7--7-|

gtr 1
---------------------|
---------------------|
-----4b-^-^p2--------|
---------------4--0--|
--4------------4--0--|
--2------------2-----|

chorus
 PM-----|                   PM---|                    PM------------------------|
--------------------------------------------------------------------------------|
--------------------------------------------------------------------------------|
-----------2-1--------------------------------------------------2-1-------------|
--4-4-6-6-------4-2-1----------------2-1---------------4-4-6-6------4-2-1-------|
--2-2-2-2--------------4-2--4-4-6-6-------4-2-1--------2-2-2-2-------------4-2--|
----------------------------2-2-2-2--------------4-2----------------------------|

---0-0-0-0-0-0-0-0-0-0-----------------------------|
-0-7-7-7-7-7-7-7-7-7-7b----------------------------|
------------------------x\-------------------------|
------------------------x\----4---------------4----|
------------------------------4---------------4----|
------------------------------2---------------2----|

solo
gtr 1
  PM----------------|           PM    PM-------------|     PM
-----------------------------------------------------|
-----------------------------------------------------|
--4-4-4-4-4-4-4-4-4-4-2------------------------------|
--4-4-4-4-4-4-4-4-4-4-2---0h4-------4-----4-------2--|
--2-2-2-2-2-2-2-2-2-2-0---0h4---4-4-4-4-4-4-4-4-4-2--|
--------------------------0h2---2-2-2-2-2-2-2-2-2-0--|

gtr 2
            bend 4 1/2                   bend 1 1/2
-------------------------------------------------------------------------|
--7(10)^^^^^^------------------(7)(10)-----------------(10)--------(7)b\-|
-------------------------------------------------------------------------|
-------------------------------------------------------------------------|
-------------------------------------------------------------------------|
-------------------------------------------------------------------------|

gtr 1
      PM    PM                   PM       PM----------------------------------------|
--------------------------------------------------------------------14-14-14---14---|
----------------------------------------------------------------/17-------17b--17b--|
----------4-----4-4-4-4-2-----------------------------------------------------------|
------4-4-4-4-4-4-4-4-4-2-------------4---------------------------------------------|
--0h2-2-2-2-2-2-2-2-2-2-0-------4--4--4--4--4--4--4--4---4-2p0----------------------|
---------------------------0h2--2--2--2--2--2--2--2--2---2-0------------------------|

--14-16-17-17-14-16-17-17-14-17-18-18-14-17-18-18-19-21-21-18-19-21/24b-|
------------------------------------------------------------------------|
------------------------------------------------------------------------|
------------------------------------------------------------------------|
------------------------------------------------------------------------|
------------------------------------------------------------------------|

    PM    PM
----------------------------------------------------------|
--------------------------7-7-7-7-7-7-7-7-7-7-7-7-7-7-7-7-|
--4-----4-----4-4-4-4-2---9-9-9-9-9-9-9-9-9-9-9-9-9-9-9-9-|
--4-4-4-4-4-4-4-4-4-4-2-----------------------------------|
--2-2-2-2-2-2-2-2-2-2-0-----------------------------------|
----------------------------------------------------------|

dont dive, let the pitch return to standard, use echo on the ghost notes
   bend 1 1/2      4 1/2
--------------------------|
--14(17)^^^---------(17)--|
--------------------------|
--------------------------|
--------------------------|
--------------------------|

--------------------------------------------------------------------|
--7-7-7-7-7-7-7-7-7-7-7-7-7-7-7-7---7-7-7-7-7-7-7-7-7-7-7-7-7-7-7-7-|
--9-9-9-9-9-9-9-9-9-9-9-9-9-9-9-9---8-8-8-8-8-8-8-8-8-8-8-8-8-8-8-8-|
--------------------------------------------------------------------|
--------------------------------------------------------------------|
--------------------------------------------------------------------|

---------------------------------------------------------------|
--7-7-7-7-7-7-7-7-7-7-7-7-7-7-7-7\-----------------------------|
--7-7-7-7-7-7-7-7-7-7-7-7-7-7-7-7\---------------------4b------|
------------------------------------2----4-2----2----------0-4-|
------------------------------------0----0-0----0--4---------4-|
---------------------------------------------------2---------2-|

verse
 PM--------------------------|
-----------------------------|
-----------------------------|
--------------------------2--|
-------4-4-4-4-4-4-4-4-4--2--|
-------4-4-4-4-4-4-4-4-4--0--|
--0h2--2-2-2-2-2-2-2-2-2-----|

 PM-----------------------|
--------------------------|
--------------------------|
--------------------------|
-------4-4-4-4-4-4-4-4-4--|
-------4-4-4-4-4-4-4-4-4--|
--0h2--2-2-2-2-2-2-2-2-2--|

pre-chorus
-----------------------------------------|
-----------------------------------------|
-----------------------------------------|
-----------------------------------------|
--7-7-9-9-7-7-9-9--7-7-9-9--7-7-7-7/9--9-|
--5-5-5-5-5-5-5-5--5-5-5-5--5-5-5-5/7--7-|

gtr 2
--------------------------------------|
--------------------------------------|
--------------------------------------|
--7-----7-----7-7--7---7-7-7---7/9--9-|
--7-----7-----7-7--7---7-7-7---7/9--9-|
--5-----5-----5-5--5---5-5-5---5/7--7-|

gtr 1
---------------------|
---------------------|
-----4b-^-^p2--------|
---------------4--0--|
--4------------4--0--|
--2------------2-----|

chorus
  PM---|                                               PM-----------------------|
------------------------------0-0-0-0-0-0-0-0-0-0-------------------------------|
----------------------------0-7-7-7-7-7-7-7-7-7-7b------------------------------|
-----------2-1-------------------------------------x\-----------2-1-------------|
--4-4-6-6-------4-2-1------------------------------x\--4-4-6-6------4-2-1-------|
--2-2-2-2--------------4-2-----------------------------2-2-2-2-------------4-2--|
--------------------------------------------------------------------------------|

------------------------------------------------------------|
------------------------------------------------------------|
-----------------------------------2-1----------------------|
-----------2-1------------4-4-6-6------4-2-1--------4----4~-|
--4-4-6-6------4-2-1------2-2-2-2-------------4-2---4----4~-|
--2-2-2-2------------4-2----------------------------2----2~-|

with les paul type electronics, set lead to full and rhythm to 0
and flip toggle switch in specified rhythm, where the notes are when the
lead pickup is on and the rests and the pickup is off in the neck position

--------------------------------------------------------------|
--------------------------------------------------------------|
--------------------------------------------------------------|
--(4)-(4)-(4)-(4)-(4)-(4)-(4)-(4)-(4)-(4)-(4)-(4)-(4)-(4)-(4)-|
--(4)-(4)-(4)-(4)-(4)-(4)-(4)-(4)-(4)-(4)-(4)-(4)-(4)-(4)-(4)-|
--(2)-(2)-(2)-(2)-(2)-(2)-(2)-(2)-(2)-(2)-(2)-(2)-(2)-(2)-(2)-|


7. RED HOT
/- slide down
\- slide up
p- pull off
h- hammer on
(#)- let ring
^- use bar
b- bend
~- let ring
PM- palm mute
x- palm mute

intro- pick scrape
d-------------------------------------------------------------------|
g-------------------------------------------------------------------|
c-------------------------------------------------------------------|
f-------------------------------------------------------------------|
a--x\-----------------\---------------------\--------------------\--|
d--x\------------------\---------------------\--------------------\-|

d-------------------------------------------------------------------------|
g-------8p7----7---------8p7----7---------8p7----7----------8p7----7------|
c--9----7------7----9----7------7----9----7------7----7-----7------7----9-|
f--9---------9------9---------9------9---------9------7----------9------9-|
a--7----------------7----------------7----------------5-----------------7-|
d--0----------------0----------------0----------------------------------0-|

         PM-------|                     PM---------------------|
d--------------------------------------------------------------|
g--------------------8p7--8--8----------------------8p7--8--8--|
c--7/9---------------7----7--7----7/9---------------7----7--7--|
f--7/9---------------5----5--5----7/9---------------5----5--5--|
a--5/7----------------------------5/7--------------------------|
d-------0-0-0-0-0-0--------------------0-0-0-0-0-0-------------|

         PM-------|                     PM---------------------|
d--------------------------------------------------------------|
g--------------------8p7--8--8----------------------8p7--8-----|
c--7/9---------------7----7--7----7/9---------------7----7--7--|
f--7/9---------------5----5--5----7/9---------------5----5--7--|
a--5/7----------------------------5/7-----------------------5--|
d-------0-0-0-0-0-0--------------------0-0-0-0-0-0-------------|

verse                                                   PM-----------------------|
d--------------------------------------------------------------------------------|
g---------------------------------------------------------------------8p7--8-----|
c-9--------7-7----9--------9-9----7---------------7/9-----------------7----7--7--|
f-9--------7-7----9--------9-9----7----4--5-------7/9-----------------5----5--7--|
a-7--------5-5----7--------7-7----5----------5----5/7-------------------------5--|
d-0---------------0-------------------------------------0-0-0-0-0-0--------------|

d------------------------------------------------------------|
g------------------------------------------------------------|
c--9--------7-7----9--------9-9----7---------------9----9--7-|
f--9--------7-7----9--------9-9----7----4--5-------9----9--7-|
a--7--------5-5----7--------7-7----5----------5----7----7--5-|
d--0---------------0-------------------------------0---------|

pre chorus          PM--------------------------|
d-----------------------------------------------|
g-----------------------------------------------|
c--5-----7-----7/9------------------------9--7--|
f--5-----7-----7/9------------------------9--7--|
a--3-----5-----5/7------------------------7--5--|
d-------------------0-0-0-0-0-0--0-0-0-0--------|

                    PM--------------------------|
d-----------------------------------------------|
g-----------------------------------------------|
c--5-----7-----7/9------------------------9--7--|
f--5-----7-----7/9------------------------9--7--|
a--3-----5-----5/7------------------------7--5--|
d-------------------0-0-0-0-0-0--0-0-0-0--------|

                    PM--------------------------|
d-----------------------------------------------|
g-----------------------------------------------|
c--5-----7-----7/9------------------------9--7--|
f--5-----7-----7/9------------------------9--7--|
a--3-----5-----5/7------------------------7--5--|
d-------------------0-0-0-0-0-0--0-0-0-0--------|

                PM---------|   PM    PM--------------------------|     PM
d----------------------------------------------------------------|
g----------------------------------------------------------------|
c--5----4----2---------------5-----5-----5-----------------------|
f--5----4----2---------------5-----5-----5--0-0--7p5--7p5--5-----|
a--3----2----0--0-0-0-0-0-0----0-0---0-0---------7p5--7p5--5--7--|
d-------------------------------------------------------------5--|

chorus
d---------------------------------------------------------------------|
g-------8p7----7---------8p7----7----------8p7----7----------8p7----7-|
c--9----7------7----9----7------7----7-----7------7----9-----7------7-|
f--9---------9------9---------9------7----------9------9----------9---|
a--7----------------7----------------5-----------------7--------------|
d--0----------------0----------------------------------0--------------|

d----------------------------------------------------------------|
g-------8p7----7---------8p7----7----------8p7----7--------------|
c--9----7------7----9----7------7----7-----7------7----9-----7-7-|
f--9---------9------9---------9------7----------9------9-----7-7-|
a--7----------------7----------------5-----------------7-----5-5-|
d--0----------------0----------------------------------0---------|

d---------------------------------------------------------------------|
g-------8p7----7---------8p7----7----------8p7----7----------8p7----7-|
c--9----7------7----9----7------7----7-----7------7----9-----7------7-|
f--9---------9------9---------9------7----------9------9----------9---|
a--7----------------7----------------5-----------------7--------------|
d--0----------------0----------------------------------0--------------|

d--------------------------------------------------------------|
g-------8p7----7---------8p7----7----------8p7----7------------|
c--9----7------7----9----7------7----7-----7------7----9----9\-|
f--9---------9------9---------9------7----------9------9----9\-|
a--7----------------7----------------5-----------------7----7\-|
d--0----------------0----------------------------------0-------|

verse                                                   PM-----------------------|
d--------------------------------------------------------------------------------|
g---------------------------------------------------------------------8p7--8-----|
c-9--------7-7----9--------9-9----7---------------7/9-----------------7----7--7--|
f-9--------7-7----9--------9-9----7----4--5-------7/9-----------------5----5--7--|
a-7--------5-5----7--------7-7----5----------5----5/7-------------------------5--|
d-0---------------0-------------------------------------0-0-0-0-0-0--------------|

d------------------------------------------------------------|
g------------------------------------------------------------|
c--9--------7-7----9--------9-9----7---------------9----9--7-|
f--9--------7-7----9--------9-9----7----4--5-------9----9--7-|
a--7--------5-5----7--------7-7----5----------5----7----7--5-|
d--0---------------0-------------------------------0---------|

solo
d----------------------------------------------------------------------------|
g----------------------------------------------------------------------------|
c--2b----p0--2~----0----------------------------0----------------------------|
f--------------------4--0---0h2p0h2p0--0-----2-----4~~--2--0--0^(2)~~--2--0--|
a-----------------------------------------3----------------------------------|
d----------------------------------------------------------------------------|

                                                                   PM-----------|
d-------------------------------------------------------------------------------|
g-----0---------1-----------------------------------0---------------------------|
c---0-0------2--2----2/4----2--0--2/4--2--0------0--0------4--2--2--------------|
f-2-2-----4--4-------4/5----4--2--4/5--4--2---2--2------1--1--4--2--------------|
a-3-------5-----------------------------------3---------2--------0-0-0-0-0-0-0--|
d-------------------------------------------------------------------------------|

       PM     PM     PM
d---------------------------------------|
g---------------------------------------|
c--5------5------5----------------------|
f--5------5------5-------7p5--7p5--5----|
a-----0-0----0-0----0-0--7p5--7p5--5--7-|
d-------------------------------------5-|

outro
d---------------------------------------------------------------------|
g-------8p7----7---------8p7----7----------8p7----7----------8p7----7-|
c--9----7------7----9----7------7----7-----7------7----9-----7------7-|
f--9---------9------9---------9------7----------9------9----------9---|
a--7----------------7----------------5-----------------7--------------|
d--0----------------0----------------------------------0--------------|

        PM--------|                    PM----------------------|
d--------------------------------------------------------------|
g--------------------8p7--8--8----------------------8p7--8--8--|
c--7/9---------------7----7--7----7/9---------------7----7--7--|
f--7/9---------------5----5--5----7/9---------------5----5--5--|
a--5/7----------------------------5/7--------------------------|
d-------0-0-0-0-0-0--------------------0-0-0-0-0-0-------------|

        PM--------|                    PM----------------------|
d--------------------------------------------------------------|
g--------------------8p7--8--8----------------------8p7--8--8--|
c--7/9---------------7----7--7----7/9---------------7----7--7--|
f--7/9---------------5----5--5----7/9---------------5----5--5--|
a--5/7----------------------------5/7--------------------------|
d-------0-0-0-0-0-0--------------------0-0-0-0-0-0-------------|

        PM--------|                    PM----------------------|
d--------------------------------------------------------------|
g--------------------8p7--8--8----------------------8p7--8--8--|
c--7/9---------------7----7--7----7/9---------------7----7--7--|
f--7/9---------------5----5--5----7/9---------------5----5--5--|
a--5/7----------------------------5/7--------------------------|
d-------0-0-0-0-0-0--------------------0-0-0-0-0-0-------------|


8. TOO YOUNG TO FALL IN LOVE
drop D tuning-DGCFAD

\ -slide up
/ -slide down
^ -use bar
~ -let ring

Intro
------------------------------------------------|
------------------------------------------------|
----------------------------7-----5--------5----|
----------------------------7-----7--------5----|
-------------17/---------0-----0-----0--0-----0-|
------------------------------------------------|

----------------------------------------------------------------|
----------------------------------------------------------------|
--4--5------------7-----5--------5----4----5------7-----5-------|
--5--5------------7-----7--------5----5----5------7-----7-------|
---------------0----0-----0---0----------------------0-----0--0-|
--------0--3----------------------------0------1----------------|

------------------------------------------------------------|
------------------------------------------------------------|
--5-----4--5------------------------------------------------|
--5-----5--5------------9-----7--------10---------9---------|
-----0------------------7-----5--------8----------7--3--2---|
--------------0---0--0-----0-----0--0------0--0-----------3-|

--------------------------------------------------------------------|
--------------------------------------------------------------------|
------7-----5--------5------4--5----------7-----5--------5-----4--5-|
------7-----7--------5------5--5----------7-----7--------5-----5--5-|
---0-----0-----0--0-----0--------------------0-----0--0-----0-------|
-----------------------------------0---3----------------------------|

-------------------------------------------------------------|
-------------------------------------------------------------|
-----------7-----5--------5-----4--5-------------------------|
-----------7-----7--------5-----5--5-----------9-----7-------|
--------------0-----0--0-----0-----------------7-----5-------|
---0---1-----------------------------0---0--0-----0-----0--0-|

------------------------------------------------------------------|
------------------------------------------------------------------|
------------------------------------------------------------------|
---10--------9--9--9--9---------9-----7--------10---------9-------|
---8---------7--7--7--7---------7-----5--------8----------7--3--2-|
-------0--0---------------0--0-----0-----0--0------0--0-----------|

Verse
----------------------------------------------------------------|
----------------------------------------------------------------|
----------5--------5--------5--------5--------7--\--5--------5--|
----------7--------7--------7--------7--------5--\--3--------3--|
-------0-----0--0-----0--0-----0--0-----0--0-----------0--0-----|
---3------------------------------------------------------------|

-----------------------------------------------------------------|
-----------------------------------------------------------------|
---------5--------5--------5--7---5--------5--------5--------5---|
---------3--------3--------3--5---7--------7--------7--------7---|
--0--0-----0--0-----0--0-------------0--0-----0--0-----0--0----0-|
-----------------------------------------------------------------|

----------------------------------------------------------------|
----------------------------------------------------------------|
------7--\---5--------5--------5--------5--------5--5---4-------|
------5--\---3--------3--------3--------3--------3--3---2--2--2-|
---0------------0--0-----0--0-----0--0-----0--0-----------------|
----------------------------------------------------------------|

-----------------------------------------------------------------|
-----------------------------------------------------------------|
--------------5--------5--5--5--5--5--------5--------5--------5--|
--2--2--2--2--3--3--3--3--3--3--3--3--------3--------3--------3--|
--------------------------------------0--0-----0--0-----0--0-----|
-----------------------------------------------------------------|

-----------------------------------------------------------------|
-----------------------------------------------------------------|
--------5--5--4--------------------5--------5--5--5--5--4--------|
--------3--3--2--2--2--2--2--2--2--3--3--3--3--3--3--3--2--0-----|
--0--0-----------------------------------------------------------|
-----------------------------------------------------------------|

------------------------------------------|
------------------------------------------|
-----5--------4--------5--------4--5--/-7-|
-----3--------2--0-----3--------2--3--/-5-|
--0-----0--0--------0-----0--0------------|
------------------------------------------|

Chorus
---------------------------------------------------------|
---------------------------------------------------------|
----7-----5--------5-----4--5---------7-----5-------5----|
----7-----7--------5-----5--5---------7-----7-------5----|
--0----0-----0--0-----0------------------0-----0--0----0-|
-------------------------------0---3---------------------|

--------------------------------------------------------------|
--------------------------------------------------------------|
--4--5--------7-----5--------5-----4--5-----------------------|
--5--5--------7-----7--------5-----5--5------------9-----7----|
-----------------0-----0--0-----0------------------7-----5----|
--------0--1-----------------------------0---0--0-----0-----0-|

-----------------------------------------------------------|
-----------------------------------------------------------|
-------------------------------7-----5--------5-----4--5---|
-----10--------9---------------7-----7--------5-----5--5---|
-----8---------7--3--2------0-----0-----0--0-----0---------|
--0------0--0-----------3--------------------------------0-|

-----------------------------------------------------------------|
-----------------------------------------------------------------|
-----7-----5--------5-----4--5---------7-----5--------5-----4--5-|
-----7-----7--------5-----5--5---------7-----7--------5-----5--5-|
--------0-----0--0-----0------------------0-----0--0-----0-------|
--3------------------------------0--1----------------------------|

-------------------------------------------------------------|
-------------------------------------------------------------|
-------------------------------------------------------------|
------------9-----7--------10--------9--9--9--9---------9----|
------------7-----5--------8---------7--7--7--7---------7----|
--0---0--0-----0-----0--0------0--0---------------0--0-----0-|

Verse
---------------------------------------------------------------|
---------------------------------------------------------------|
-------------------------------------5--------5--------5-------|
--7--------10--------9---------------7--------7--------7-------|
--5--------8---------7--3--2------0-----0--0-----0--0-----0--0-|
-----0--0------0--0-----------3--------------------------------|

--------------------------------------------------------------|
--------------------------------------------------------------|
---5--------7--\--5--------5--------5--------5--------5--7--5-|
---7--------5--\--3--------3--------3--------3--------3--5--7-|
------0--0-----------0--0-----0--0-----0--0-----0--0----------|
--------------------------------------------------------------|

---------------------------------------------------------------|
---------------------------------------------------------------|
--------5--------5--------5--------7--\-5--------5--------5----|
--------7--------7--------7--------5--\-3--------3--------3----|
--0--0-----0--0-----0--0-----0--0----------0--0-----0--0-----0-|
---------------------------------------------------------------|

-----------------------------------------------------------------|
-----------------------------------------------------------------|
-----5--------5--5--4-----------------------5---------5--5--5--5-|
-----3--------3--3--2--2--2--2--2--2--2--3--3--3--3--3--3--3-----|
--0-----0--0-----------------------------------------------------|
-----------------------------------------------------------------|

----------------------------------------------------------------|
----------------------------------------------------------------|
--5--------5--------5--------5--------5--5--4-------------------|
--3--------3--------3--------3--------3--3--2--2--2--2--2--2--2-|
-----0--0-----0--0-----0--0-----0--0----------------------------|
----------------------------------------------------------------|

----------------------------------------------------------------|
----------------------------------------------------------------|
--5--------5--5--5--5--5--------5--------5--------5--------5--5-|
--3--3--3--3--3--3--3--3--------3--------3--------3--------3--3-|
--------------------------0--0-----0--0-----0--0-----0--0-------|
----------------------------------------------------------------|

-------------------------------------------------------------|
-------------------------------------------------------------|
--4--------------------5--------5--5--5--5--4--------5-------|
--2--2--2--2--2--2--2--3--3--3--3--3--3--3--2--0-----3-------|
--------------------------------------------------0-----0--0-|
-------------------------------------------------------------|

------------------------------|
------------------------------|
--4--------5--------4--5--/-7-|
--2--0-----3--------2--3--/-5-|
--------0-----0--0------------|
------------------------------|

Chorus
-----------------------------------------------------------------|
-----------------------------------------------------------------|
-----7-----5--------5-----4--5---------7-----5--------5-----4--5-|
-----7-----7--------5-----5--5---------7-----7--------5-----5--5-|
--0-----0-----0--0-----0------------------0-----0--0-----0-------|
-------------------------------0----3----------------------------|

--------------------------------------------------------------|
--------------------------------------------------------------|
-----------7-----5--------5-----4--5--------------------------|
-----------7-----7--------5-----5--5------------9-----7-------|
--------------0-----0--0-----0------------------7-----5-------|
---0----1-----------------------------0---0--0-----0-----0--0-|

------------------------------------------------------------|
------------------------------------------------------------|
-----------------------------7-----5--------5-----4--5------|
--10--------9----------------7-----7--------5-----5--5------|
--8---------7--3--2-------0-----0-----0--0-----0------------|
------0--0-----------3---------------------------------0--3-|

----------------------------------------------------------------|
----------------------------------------------------------------|
--7-----5--------5-----4--5--------7-----5--------5-----4--5----|
--7-----7--------5-----5--5--------7-----7--------5-----5--5----|
-----0-----0--0-----0-----------------0-----0--0-----0----------|
----------------------------0---1-----------------------------0-|

Solo
--7--7--7--7--7--7--7--7--7--7--5--7--4---5-----4----------|
----------------------------------------6-----5---6---5--6-|
-----------------------------------------------------------|
-----------------------------------------------------------|
-----------------------------------------------------------|
-----------------------------------------------------------|

----------------------------------------------------------------|
--5-----5--6-----5--6--5-----5--6--5-----5----------------------|
-----7--------7-----------7-----------7-----7^--7^--7^~~~--4--5-|
----------------------------------------------------------------|
----------------------------------------------------------------|
----------------------------------------------------------------|

-------------------------------------------------------------------|
-------------------------------------------------------------------|
--7--4--5--7--4--5--7--4--5--7--4--5--7--4--5--7--4--5--7--4--5--7-|
-------------------------------------------------------------------|
-------------------------------------------------------------------|
-------------------------------------------------------------------|

--------------------5------------------5--7--8--5--7--8--5--7-|
-----------6--5--------6--5-----6--5--------------------------|
--4--5--7--------7-----------7--------------------------------|
--------------------------------------------------------------|
--------------------------------------------------------------|
--------------------------------------------------------------|

---8--5--7--8--5--7--8--5--7--8--5--7--8--5--7--8--12--13--15-|
--------------------------------------------------------------|
--------------------------------------------------------------|
--------------------------------------------------------------|
--------------------------------------------------------------|
--------------------------------------------------------------|

--12--13--15--15--12--13--15--12--12--12--15^--15^--15^--15^-|
-------------------------------------------------------------|
-------------------------------------------------------------|
-------------------------------------------------------------|
-------------------------------------------------------------|
-------------------------------------------------------------|

------12--13------12--13------12----------------------------------|
--15----------15-----------15------13--15--12--13------12---------|
---------------------------------------------------14------12--14-|
------------------------------------------------------------------|
------------------------------------------------------------------|
------------------------------------------------------------------|

-----------------------------------------------------------------|
-----------------------------------------------------------------|
---10--12--10--9---9--10--9------9--10--9------9--10--12--12--10-|
------------------------------12-----------12--------------------|
-----------------------------------------------------------------|
-----------------------------------------------------------------|

---------------------------------------------------------------|
---------------------------------------------------------------|
---9--9\-----5--------5--------5--------5--------7--\--5-------|
-------------7--------7--------7--------7--------5--\--3-------|
----------0-----0--0-----0--0-----0--0-----0--0-----------0--0-|
---------------------------------------------------------------|

Verse
----------------------------------------------------------------|
----------------------------------------------------------------|
--5--------5--------5--------5--7------5--------5--------5------|
--3--------3--------3--------3--5------7--------7--------7------|
-----0--0-----0--0-----0--0--------0-----0--0-----0--0-----0--0-|
----------------------------------------------------------------|

----------------------------------------------------------|
----------------------------------------------------------|
--5--------7--\--5--------5--------5--------5--------5--7-|
--7--------5--\--3--------3--------3--------3--------3--5-|
-----0--0-----------0--0-----0--0-----0--0-----0--0-------|
----------------------------------------------------------|

Verse
----------------------------------------------------------------|
----------------------------------------------------------------|
-----5--------5--------5--------5--------7--\--5--------5-------|
-----7--------7--------7--------7--------5--\--3--------3-------|
--0-----0--0-----0--0-----0--0-----0--0-----------0--0-----0--0-|
----------------------------------------------------------------|

-----------------------------------------------------------------|
-----------------------------------------------------------------|
--5--------5--------5--7------5--------5--------5--------5-------|
--3--------3--------3--5------7--------7--------7--------7-------|
-----0--0-----0--0---------0-----0--0-----0--0-----0--0-----0--0-|
-----------------------------------------------------------------|

-------------------------------------------------------------|
-------------------------------------------------------------|
--7--\--5--------5--------5--------5--------5--5--4----------|
--5--\--3--------3--------3--------3--------3--3--2--2--2--2-|
-----------0--0-----0--0-----0--0-----0--0-------------------|
-------------------------------------------------------------|

-----------------------------------------------------------------|
-----------------------------------------------------------------|
-----------5--------5--5--5--5---5--------5--------5--------5----|
--2--2--2--3--3--3--3--3--3--3---3--------3--------3--------3----|
------------------------------------0--0-----0--0-----0--0-----0-|
-----------------------------------------------------------------|

----------------------------------------------------------------|
----------------------------------------------------------------|
------5--5---4--------------------5--------5--5--5--5--4--------|
------3--3---2--2--2--2--2--2--2--3--3--3--3--3--3--3--2--0-----|
--0-----------------------------------------------------------0-|
----------------------------------------------------------------|

----------------------------------------|
----------------------------------------|
--5--------4--------5--------4--5--/--7-|
--3--------2--0-----3--------2--3--/--5-|
-----0--0--------0-----0--0-------------|
----------------------------------------|

Chorus
-------------------------------------------------------------|
-------------------------------------------------------------|
----7-----5--------5-----4--5---------7-----5--------5-----4-|
----7-----7--------5-----5--5---------7-----7--------5-----5-|
--0-----0-----0--0-----0------------------0----0--0-----0----|
-------------------------------0---3-------------------------|

---------------------------------------------------------------|
---------------------------------------------------------------|
--5----------7-----5--------5-----4--5-------------------------|
--5----------7-----7--------5-----5--5----------9-----7--------|
----------------0-----0--0-----0-----------------7-----5-------|
------0---1-----------------------------0--0--0-----0-----0--0-|

------------------------------------------------------------|
------------------------------------------------------------|
----------------------------7-----5--------5-----4--5-------|
--10--------9---------------7-----7--------5-----5--5-------|
--8---------7--3--2------0-----0-----0--0-----0-------------|
------0--0-----------3---------------------------------0--3-|

-----------------------------------------------------------------|
-----------------------------------------------------------------|
--7-----5--------5-----4--5---------7-----5--------5-----4--5----|
--7-----7--------5-----5--5---------7-----7--------5-----5--5----|
-----0-----0--0-----0------------------0-----0--0-----0----------|
-----------------------------0---1-----------------------------0-|

------------------------------------------------------------|
------------------------------------------------------------|
------------------------------------------------------------|
--------9-----7--------10--------9--9--9--9---------9-----7-|
--------7-----5--------8---------7--7--7--7---------7-----5-|
--0--0-----0-----0--0------0--0---------------0--0-----0----|

Outro
---------------------------------------------------------------|
---------------------------------------------------------------|
----------------------------------7-----5--------5-----4--5----|
--------10--------9---------------7-----7--------5-----5--5----|
--------8---------7--3--2------0-----0-----0--0-----0----------|
--0--0------0--0-----------3---------------------------------0-|

-------------------------------------------------------------|
-------------------------------------------------------------|
-----7-----5--------5-----4--5--------7-----5--------5-----4-|
-----7-----7--------5-----5--5--------7-----7--------5-----5-|
--------0-----0--0-----0-----------------0-----0--0-----0----|
--3-----------------------------0---1------------------------|

Repeat Until Fade
--------------------------------------------------|
--------------------------------------------------|
--5-----------------------------------------------|
--5------------9-----7--------10--------9---------|
---------------7-----5--------8---------7--3--2---|
-----0---0--0-----0-----0--0------0--0----------3-|


9. KNOCK 'EM DEAD KID
drop d tuning- DGCFAD

\- slide down
/- slide up
h- hammer on
p- pull off
b- bend
x- palm mute

intro- x4, all open a's are palm muted
d----------------------------------------|
g----------------------------------------|
c--17\--2-----5-----4------7----5--5\4/5-|
f--17\--2-----5-----4------7----5--5\4/5-|
a---------0-0---0-0----0-0----0----------|
d----------------------------------------|

verse- all open a's and 3's on the D are palm muted
d------------------------------------|
g------------------------------------|
c------------------------------------|
f-2-----2-----2-----2-----2----------|
a-0-0-0-0-0-0-0-0-0-0-0-0-0-3--2h3p2-|
d------------------------------------|

d------------------------------------|
g------------------------------------|
c------------------------------------|
f-2-----2-----2-----2-----2----------|
a-0-0-0-0-0-0-0-0-0-0-0-0-0-3--2h3p2-|
d------------------------------------|

d----------------------------|
g----------------------------|
c----------------------------|
f----------------------------|
a-5-----5---5---5--5-2h3p2---|
d-3-3-3-3-3-3-3-3--3-------3-|

d------------------------------------|
g------------------------------------|
c------------------------------------|
f-2-----2-----2-----2-----2----------|
a-0-0-0-0-0-0-0-0-0-0-0-0-0-3--2h3p2-|
d------------------------------------|

d------------------------------------|
g------------------------------------|
c------------------------------------|
f-2-----2-----2-----2-----2----------|
a-0-0-0-0-0-0-0-0-0-0-0-0-0-3--2h3p2-|
d------------------------------------|

d------------------------------------|
g------------------------------------|
c------------------------------------|
f-2-----2-----2-----2-----2----------|
a-0-0-0-0-0-0-0-0-0-0-0-0-0-3--2h3p2-|
d------------------------------------|

d----------------------------|
g----------------------------|
c----------------------------|
f----------------------------|
a-5-----5---5---5--5-2h3p2---|
d-3-3-3-3-3-3-3-3--3-------3-|

d------------------------------------|
g------------------------------------|
c------------------------------------|
f-2-----2-----2-----2-----2----------|
a-0-0-0-0-0-0-0-0-0-0-0-0-0-3--2h3p2-|
d------------------------------------|

chorus- x8, all open a's are palm muted
d--------------------------------------|
g--------------------------------------|
c--\--2-----5-----4------7----5--5\4/5-|
f--\--2-----5-----4------7----5--5\4/5-|
a-------0-0---0-0----0-0----0----------|
d--------------------------------------|

verse- all open a's and 3's on the D are palm muted
d------------------------------------|
g------------------------------------|
c------------------------------------|
f-2-----2-----2-----2-----2----------|
a-0-0-0-0-0-0-0-0-0-0-0-0-0-3--2h3p2-|
d------------------------------------|

d------------------------------------|
g------------------------------------|
c------------------------------------|
f-2-----2-----2-----2-----2----------|
a-0-0-0-0-0-0-0-0-0-0-0-0-0-3--2h3p2-|
d------------------------------------|

d----------------------------|
g----------------------------|
c----------------------------|
f----------------------------|
a-5-----5---5---5--5-2h3p2---|
d-3-3-3-3-3-3-3-3--3-------3-|

d------------------------------------|
g------------------------------------|
c------------------------------------|
f-2-----2-----2-----2-----2----------|
a-0-0-0-0-0-0-0-0-0-0-0-0-0-3--2h3p2-|
d------------------------------------|

d------------------------------------|
g------------------------------------|
c------------------------------------|
f-2-----2-----2-----2-----2----------|
a-0-0-0-0-0-0-0-0-0-0-0-0-0-3--2h3p2-|
d------------------------------------|

d------------------------------------|
g------------------------------------|
c------------------------------------|
f-2-----2-----2-----2-----2----------|
a-0-0-0-0-0-0-0-0-0-0-0-0-0-3--2h3p2-|
d------------------------------------|

d----------------------------|
g----------------------------|
c----------------------------|
f----------------------------|
a-5-----5---5---5--5-2h3p2---|
d-3-3-3-3-3-3-3-3--3-------3-|

d------------------------------------|
g------------------------------------|
c------------------------------------|
f-2-----2-----2-----2-----2----------|
a-0-0-0-0-0-0-0-0-0-0-0-0-0-3--2h3p2-|
d------------------------------------|

chorus- x8, all open a's are palm muted
d--------------------------------------|
g--------------------------------------|
c--\--2-----5-----4------7----5--5\4/5-|
f--\--2-----5-----4------7----5--5\4/5-|
a-------0-0---0-0----0-0----0----------|
d--------------------------------------|

solo
d--13b--11-13--10-11-13-10-11-13-13-10-11-13--10-11-13-10---10-------------|
g---------------------------------------------------------13---13b-13b--11-|
c--------------------------------------------------------------------------|
f--------------------------------------------------------------------------|
a--------------------------------------------------------------------------|
d--------------------------------------------------------------------------|

d-------------------------------------------------------------|
g--11-13-11---------------------------------------------------|
c-----------12-12-11-10-10----10-8----------------------------|
f--------------------------10-------10-8-----8----------------|
a-----------------------------------------10---10-8-8\6----8b-|
d--------------------------------------------------------8----|

d----------------------------5-8-8-8----------------------17-20-17-20-20-17-|
g--------------------5-8-8-8----------17-17-20-20-17-20b--------------------|
c-----------5-7-7-7---------------------------------------------------------|
f--5-7-7-7------------------------------------------------------------------|
a---------------------------------------------------------------------------|
d---------------------------------------------------------------------------|

d-----------17-20-20--------17-20-17-20-17--------17-17----17-|
g--17-19-20-----------17-20-----------------17-20-------20----|
c-------------------------------------------------------------|
f-------------------------------------------------------------|
a-------------------------------------------------------------|
d-------------------------------------------------------------|

d--20-20-------17h20--------17h20-20b------|
g--------17h20-------17h20-------------11b-|
c------------------------------------------|
f------------------------------------------|
a------------------------------------------|
d------------------------------------------|

d--8---------------------------------------------------|
g----11-8-8--------------------------------------------|
c-----------11-10-10-8-----8---------------------------|
f-----------------------10----10-8-----8---------------|
a-----------------------------------10---10-8\6--------|
d-----------------------------------------------8-6-6b-|

d---------------------------------------------------------------|
g----------------------------------------8h11p8h11p8h11p8h10p8\-|
c-----------------------------------8-8-------------------------|
f------------------------8-8-10-10------------------------------|
a----------6-6-8-8-10-10----------------------------------------|
d--6-6-8-8------------------------------------------------------|

d------------------------------------5--5-------------------|
g-----------------------------------------8-7-5-----5-------|
c---------------------------5-------------------8-7---8-7-5-|
f--x-5---5---5---5---5--------7---5-------------------------|
a-----7---7---7---7---7-5-7---------------------------------|
d-----------------------------------------------------------|

d---------------------------------------------------------|
g---------------------------------------------------------|
c--4----5---------------------------------------7-7-10-10-|
f----7-----7-5-7----------------------7-7-10-10-----------|
a--------------------------8-8-10-10----------------------|
d----------------8-8-10-10--------------------------------|

d------------8----8h10----12----12------12\--|
g--8-8-10-10---10---------15b---15b-----15b\-|
c--------------------------------------------|
f--------------------------------------------|
a--------------------------------------------|
d--------------------------------------------|

chorus- x8, all open a's are palm muted
d--------------------------------------|
g--------------------------------------|
c--\--2-----5-----4------7----5--5\4/5-|
f--\--2-----5-----4------7----5--5\4/5-|
a-------0-0---0-0----0-0----0----------|
d--------------------------------------|

outro
d-------------------------------|
g-------------------------------|
c-------------------5-----------|
f--2---2----2--5----3-----5---2-|
a--0---0----0--3----3-----3---0-|
d--------------3----------------|


10. TEN SECONDS TO LOVE
drop D tuning

x- palm mute
PM- palm mute
h- hammer on
p- pull off
b- bend
~- let ring
^- use bar
\- slide up
/- slide down
ah- artificial harmonic
\/\/\/- pick scrape

intro- gtr 1
  PM--------------------------|
d-----------------------------|
g-----------------------------|
c---------------2--2-x-2-x-2--|
f---------------2--2-x-2-x-2--|
a------0-3-0----0--0-x-0-x-0--|
d--0-3-------3----------------|

  PM--------------------------|
d-----------------------------|
g-----------------------------|
c---------------2--2-x-2-x-2--|
f---------------2--2-x-2-x-2--|
a------0-3-0----0--0-x-0-x-0--|
d--0-3-------3----------------|

  PM--------------------------|
d-----------------------------|
g-----------------------------|
c---------------2--2-x-2-x-2--|
f---------------2--2-x-2-x-2--|
a------0-3-0----0--0-x-0-x-0--|
d--0-3-------3----------------|

  PM--------------------------|
d-----------------------------|
g-----------------------------|
c---------------2--2-x-2-x-2--|
f---------------2--2-x-2-x-2--|
a------0-3-0----0--0-x-0-x-0--|
d--0-3-------3----------------|

  PM--------------------------|
d-----------------------------|
g-----------------------------|
c---------------2--2-x-2-x-2--|
f---------------2--2-x-2-x-2--|
a------0-3-0----0--0-x-0-x-0--|
d--0-3-------3----------------|

   PM-------------------------|
d-----------------------------|
g-----------------------------|
c--------------------x---x----|
f---------------5--5-x-5-x-5--|
a------0-3-0----5--5-x-5-x-5--|
d--0-3-------3--3--3---3---3--|

  PM----------------------------------------------------------|
d-------------------------------------------------------------|
g-------------------------------------------------------------|
c---------------7-7-7---9---10-10-10---------2-2--x--2--x--2--|
f---------------7-7-7---9---10-10-10---------2-2--x--2--x--2--|
a------0-3-0----5-5-5-0-7-0--8-8--8---0-3----0-0--x--0--x--0--|
d--0-3-------3-----------------------------0------------------|

  PM---------------|
d------------------|
g------------------|
c---------------2--|
f---------------2--|
a------0-3-0----0--|
d--0-3-------3-----|

gtr 2, played over gtr 1
d------------------------------5---5---5---7-----8---8----10------5--|
g------------------------------8b--8b--8b--10b--11b--11b--13b--x--8b-|
c--------------------------------------------------------------x-----|
f--------------------------------------------------------------------|
a--------------------------------------------------------------------|
d--5b----5b-5-5-5b-5-5-5b-5-5----------------------------------------|

d--5------------------------------------------------------------|
g----8--7--5-----5--5-------------------------------------------|
c-------------7b-------7b--7--5-----7--5----------------------2-|
f--------------------------------7--------7---5---------------2-|
a------------------------------------------------7--6--5--3---0-|
d---------------------------------------------------------------|

verse
d-----------------------------------------|
g-----------------------------------------|
c--2--x-2-2--5---5--5-------------7--7--5-|
f--2--x-2-2--5---5--5---5---5--5--7--7--5-|
a--0--x-0-0--3---3--3---5---5--5--5--5--3-|
d-----------------------3---3--3----------|

d-----------------------------------|
g-----------------------------------|
c--2--x-2-2--5---5--5-------------7-|
f--2--x-2-2--5---5--5---5---5--5--7-|
a--0--x-0-0--3---3--3---5---5--5--5-|
d-----------------------3---3--3----|

gtr 2, 2nd time only
d--22b^-
g-------|
c-------|
f-------|
a-------|
d-------|

chorus- x2
  PM--------------------------|
d-----------------------------|
g-----------------------------|
c---------------2--2-x-2-x-2--|
f---------------2--2-x-2-x-2--|
a------0-3-0----0--0-x-0-x-0--|
d--0-3-------3----------------|

  PM--------------------------|
d-----------------------------|
g-----------------------------|
c--------------------x---x----|
f---------------5--5-x-5-x-5--|
a------0-3-0----5--5-x-5-x-5--|
d--0-3-------3--3--3---3---3--|

  PM----------------------------------------------------------|
d-------------------------------------------------------------|
g-------------------------------------------------------------|
c---------------7-7-7---9---10-10-10---------2-2--x--2--x--2--|
f---------------7-7-7---9---10-10-10---------2-2--x--2--x--2--|
a------0-3-0----5-5-5-0-7-0--8-8--8---0-3----0-0--x--0--x--0--|
d--0-3-------3-----------------------------0------------------|

verse
 PM---------------------------|
d-----------------------------|
g-----------------------------|
c---------------2--2-x-2-x-2--|
f---------------2--2-x-2-x-2--|
a------0-3-0----0--0-x-0-x-0--|
d--0-3-------3----------------|

  PM--------------------------|
d-----------------------------|
g-----------------------------|
c---------------2--2-x-2-x-2--|
f---------------2--2-x-2-x-2--|
a------0-3-0----0--0-x-0-x-0--|
d--0-3-------3----------------|

gtr 2 lead
d--22b--x--22b-|
g--------------|
c--------------|
f--------------|
a--------------|
d--------------|

  PM--------------------------|
d-----------------------------|
g-----------------------------|
c---------------2--2-x-2-x-2--|
f---------------2--2-x-2-x-2--|
a------0-3-0----0--0-x-0-x-0--|
d--0-3-------3----------------|

  PM--------------------------|
d-----------------------------|
g-----------------------------|
c---------------2--2-x-2-x-2--|
f---------------2--2-x-2-x-2--|
a------0-3-0----0--0-x-0-x-0--|
d--0-3-------3----------------|

  PM--------------------------|
d-----------------------------|
g-----------------------------|
c---------------2--2-x-2-x-2--|
f---------------2--2-x-2-x-2--|
a------0-3-0----0--0-x-0-x-0--|
d--0-3-------3----------------|

solo- gtr 2 play the chorus until the end of solo
d-22b--22b--20p17~~---17-------------------------------------------------------|
g------------------17---20p17--17----------------------------------------------|
c--------------------------------19--19p17h19b~~----------------------12-14-17-|
f-------------------------------------------------------------10-12-14---------|
a-------------------------------------------------------10-12------------------|
d--------------------------------------------------17/-------------------------|


d------15-------17-20p17---20-20p17----------20-17-20-20-------17h19h20-------|
g-15-17---17-20---------20----------20-17h19-------------17h19----------17h19-|
c-----------------------------------------------------------------------------|
f-----------------------------------------------------------------------------|
a-----------------------------------------------------------------------------|
d-----------------------------------------------------------------------------|


d-17h20p17-19h20------------------20-19-17-20-20-17-17-20b-20b----5-------------|
g-----------------19p17--17-19-20------------------------------8b---8-5--5------|
c-----------------------------------------------------------------------8--8--7-|
f-------------------------------------------------------------------------------|
a-------------------------------------------------------------------------------|
d-------------------------------------------------------------------------------|

                                 ah
d-------------------------------------------------------------------------|
g-------------------------------------------------------------------------|
c--7p5-7-7p5--------------------------------------------5-7b-p5-7p5--5-7b-|
f-------------7-5--5--------------------------------5-7-------------------|
a--------------------7-6-5-3-3-5-3-----0------3-5-7-----------------------|
d-----------------------------------------3-5-----------------------------|

d---------------------------------------------------------------------------|
g----------------------------------------------------------16-17-20-17-20b--|
c-------------------------------------------------12-14-17------------------|
f---------------------5b-----------------10-12-14---------------------------|
a----------------------------------10-12------------------------------------|
d--5b----5-5-5-5-5-5-------5-5-5-5------------------------------------------|

d--17h20p17-----20---17--17-19-20-17-19-20-17-19-20-20-19------------|
g------------20----20-------------------------------------20-x-x-20b-|
c--------------------------------------------------------------------|
f--------------------------------------------------------------------|
a--------------------------------------------------------------------|
d--------------------------------------------------------------------|

d--17-17-----17-17-17-17-17------17-17-17-----17-17-17-----------|
g--------20b-----------------20b----------20b-----------20b--20b-|
c----------------------------------------------------------------|
f----------------------------------------------------------------|
a----------------------------------------------------------------|
d----------------------------------------------------------------|


BREAK- bass and drums only


d--8-----10-----5----5---\----17----17-------17--\------17---17--------17--17--|
g--11b---13b----8b---8b---\---20b---20b---20-20b-\------20b--20b---20--20b-20b-|
c------------------------------------------------------------------------------|
f------------------------------------------------------------------------------|
a------------------------------------------------------------------------------|
d------------------------------------------------------------------------------|

 pick scrape up
d-----------------------------------------------------------------|
g-----------------------------------------------------------------|
c--x\/\/\/-x\/\/\/---7--7---9---10----------2--2-2-2-2-2-2-2-2--2-|
f--x\/\/\/-x\/\/\/---7--7---9---10----------2--2-2-2-2-2-2-2-2--2-|
a--------------------5--5-0-7-0--8---0------0--0-0-0-0-0-0-0-0--0-|
d---------------------------------------3-0-----------------------|

chorus
  PM--------------------------|
d-----------------------------|
g-----------------------------|
c---------------2--2-x-2-x-2--|
f---------------2--2-x-2-x-2--|
a------0-3-0----0--0-x-0-x-0--|
d--0-3-------3----------------|

  PM--------------------------|
d-----------------------------|
g-----------------------------|
c--------------------x---x----|
f---------------5--5-x-5-x-5--|
a------0-3-0----5--5-x-5-x-5--|
d--0-3-------3--3--3---3---3--|

  PM----------------------------------------------------------|
d-------------------------------------------------------------|
g-------------------------------------------------------------|
c---------------7-7-7---9---10-10-10---------2-2--x--2--x--2--|
f---------------7-7-7---9---10-10-10---------2-2--x--2--x--2--|
a------0-3-0----5-5-5-0-7-0--8-8--8---0-3----0-0--x--0--x--0--|
d--0-3-------3-----------------------------0------------------|

 PM---------------------------|
d-----------------------------|
g-----------------------------|
c---------------2--2-x-2-x-2--|
f---------------2--2-x-2-x-2--|
a------0-3-0----0--0-x-0-x-0--|
d--0-3-------3----------------|

 PM---------------------------|
d-----------------------------|
g-----------------------------|
c---------------2--2-x-2-x-2--|
f---------------2--2-x-2-x-2--|
a------0-3-0----0--0-x-0-x-0--|
d--0-3-------3----------------|

 PM---------------------------|
d-----------------------------|
g-----------------------------|
c---------------2--2-x-2-x-2--|
f---------------2--2-x-2-x-2--|
a------0-3-0----0--0-x-0-x-0--|
d--0-3-------3----------------|


11. DANGER
drop D tuning- DGCFAD

\- slide down
h- hammer on
p- pull off
b- bend

intro
d-------1-0--1--------------1-0--1-------------3--1----------------------|
g---------------3------------------3----------------3------------------0-|
c----2------------2------2-----------2------0---------0-------0------0---|
f--0--------------------------------------0-----------------0------0-----|
a---------------------3-----------------2-----------------1------2-------|
d------------------------------------------------------------------------|

d-------1-0--1--------------1-0--1------------3---1----------------------|
g---------------3------------------3----------------3------------------0-|
c----2------------2------2-----------2------0---------0-------0------0---|
f--0--------------------------------------0-----------------0------0-----|
a---------------------3-----------------2-----------------1------2-------|
d------------------------------------------------------------------------|

d---------------|
g-------------4-|
c------0----0---|
f----0---1------|
a--3------------|
d---------------|

gtr 2
d-------------------|
g-------------------|
c-------------------|
f-------------------|
a--17\---1--2--3--6-|
d-------------------|

verse
d-------1-0--1--------------1-0--1------------3---1----------------------|
g---------------3------------------3----------------3------------------0-|
c----2------------2------2-----------2------0---------0-------0------0---|
f--0--------------------------------------0-----------------0------0-----|
a---------------------3-----------------2-----------------1------2-------|
d------------------------------------------------------------------------|

d-------1-0--1--------------1-0--1------------3---1----------------------|
g---------------3------------------3----------------3------------------0-|
c----2------------2------2-----------2------0---------0-------0------0---|
f--0--------------------------------------0-----------------0------0-----|
a---------------------3-----------------2-----------------1------2-------|
d------------------------------------------------------------------------|

d-------1-0--1--------------1-0--1------------3---1----------------------|
g---------------3------------------3----------------3------------------0-|
c----2------------2------2-----------2------0---------0-------0------0---|
f--0--------------------------------------0-----------------0------0-----|
a---------------------3-----------------2-----------------1------2-------|
d------------------------------------------------------------------------|

d-------1-0--1--------------1-0--1------------3---1----------------------|
g---------------3------------------3----------------3------------------0-|
c----2------------2------2-----------2------0---------0-------0------0---|
f--0--------------------------------------0-----------------0------0-----|
a---------------------3-----------------2-----------------1------2-------|
d------------------------------------------------------------------------|

d---------------|
g-------------4-|
c------0----0---|
f----0---1------|
a--3------------|
d---------------|

gtr 2
d-------------------|
g-------------------|
c-------------------|
f-------------------|
a--17\---1--2--3--6-|
d-------------------|

pre-chorus
d------------------------------------------------------------|
g--3--3-3-3-----3-3-3--3--3-----3-3-3--3--3------------------|
c--2--2-2-2-----2-3-3--3--3-----3-4-4--4--4------------------|
f--0--0-0-0--0--0-0-0--0--0--0--0-0-0--0--0---0--0-2-3-2-0---|
a-----------------------------------------------3----------3-|
d------------------------------------------------------------|

d------------------------------------------------------------|
g--3--3-3-3-----3-3-3--3--3-----3-3-3--3--3------------------|
c--2--2-2-2-----2-3-3--3--3-----3-4-4--4--4------------------|
f--0--0-0-0--0--0-0-0--0--0--0--0-0-0--0--0---0--0-2-3-2-0---|
a-----------------------------------------------3----------3-|
d------------------------------------------------------------|

chorus
d--------------------------------------------------------------|
g--------------------------------------------------------------|
c--------------------------------------------------------------|
f--5-7-7-5-7--7\------------------------5-7-7-5-7--7\----------|
a--3-5-5-3-5--5\----0-1-3---1h3p1p0-----3-5-5-3-5--5\----------|
d-----------------3------------------3-----------------3-5-6-5-|

d--------------------------------------------------------------|
g--------------------------------------------------------------|
c--------------------------------------------------------------|
f--5-7-7-5-7--7\------------------------5-7-7-5-7--7\----------|
a--3-5-5-3-5--5\----0-1-3---1h3p1p0-----3-5-5-3-5--5\----------|
d-----------------3------------------3-----------------3-5-6-5-|

pre-verse
d-------1-0--1--------------1-0--1------------3---1----------------------|
g---------------3------------------3----------------3------------------0-|
c----2------------2------2-----------2------0---------0-------0------0---|
f--0--------------------------------------0-----------------0------0-----|
a---------------------3-----------------2-----------------1------2-------|
d------------------------------------------------------------------------|

d---------------|
g-------------4-|
c------0----0---|
f----0---1------|
a--3------------|
d---------------|

gtr 2
d-------------------|
g-------------------|
c-------------------|
f-------------------|
a--17\---1--2--3--6-|
d-------------------|

verse
d-------1-0--1--------------1-0--1------------3---1----------------------|
g---------------3------------------3----------------3------------------0-|
c----2------------2------2-----------2------0---------0-------0------0---|
f--0--------------------------------------0-----------------0------0-----|
a---------------------3-----------------2-----------------1------2-------|
d------------------------------------------------------------------------|

d-------1-0--1--------------1-0--1------------3---1----------------------|
g---------------3------------------3----------------3------------------0-|
c----2------------2------2-----------2------0---------0-------0------0---|
f--0--------------------------------------0-----------------0------0-----|
a---------------------3-----------------2-----------------1------2-------|
d------------------------------------------------------------------------|

d---------------|
g-------------4-|
c------0----0---|
f----0---1------|
a--3------------|
d---------------|

gtr 2
d-------------------|
g-------------------|
c-------------------|
f-------------------|
a--17\---1--2--3--6-|
d-------------------|

pre-chorus
d------------------------------------------------------------|
g--3--3-3-3-----3-3-3--3--3-----3-3-3--3--3------------------|
c--2--2-2-2-----2-3-3--3--3-----3-4-4--4--4------------------|
f--0--0-0-0--0--0-0-0--0--0--0--0-0-0--0--0---0--0-2-3-2-0---|
a-----------------------------------------------3----------3-|
d------------------------------------------------------------|

d------------------------------------------------------------|
g--3--3-3-3-----3-3-3--3--3-----3-3-3--3--3------------------|
c--2--2-2-2-----2-3-3--3--3-----3-4-4--4--4------------------|
f--0--0-0-0--0--0-0-0--0--0--0--0-0-0--0--0---0--0-2-3-2-0---|
a-----------------------------------------------3----------3-|
d------------------------------------------------------------|

chorus
d--------------------------------------------------------------|
g--------------------------------------------------------------|
c--------------------------------------------------------------|
f--5-7-7-5-7--7\------------------------5-7-7-5-7--7\----------|
a--3-5-5-3-5--5\----0-1-3---1h3p1p0-----3-5-5-3-5--5\----------|
d-----------------3------------------3-----------------3-5-6-5-|

d--------------------------------------------------------------|
g--------------------------------------------------------------|
c--------------------------------------------------------------|
f--5-7-7-5-7--7\------------------------5-7-7-5-7--7\----------|
a--3-5-5-3-5--5\----0-1-3---1h3p1p0-----3-5-5-3-5--5\----------|
d-----------------3------------------3-----------------3-5-6-5-|

solo
d-------------------------------------------|
g------------17-18------17-18---------------|
c--17h19--19-------17---------16---16h17p16-|
f-------------------------------------------|
a-------------------------------------------|
d-------------------------------------------|

d-----------------------------------------------20b-20b-20b-20b-|
g--------------------17-18-18b--18--20--20b-20b-----------------|
c--15---14---19---19--------------------------------------------|
f---------------------------------------------------------------|
a---------------------------------------------------------------|
d---------------------------------------------------------------|

gtr 2, come in on the last 4 bends of the solo
d-------------------------------------------------------------|
g-------------------------------------------------------------|
c-------------------------------------------------------------|
f-------------------------------------------------------------|
a---------------------------------------------17\--1--2--3--6-|
d-------------------------------------------------------------|

pre-chorus
d------------------------------------------------------------|
g--3--3-3-3-----3-3-3--3--3-----3-3-3--3--3------------------|
c--2--2-2-2-----2-3-3--3--3-----3-4-4--4--4------------------|
f--0--0-0-0--0--0-0-0--0--0--0--0-0-0--0--0---0--0-2-3-2-0---|
a-----------------------------------------------3----------3-|
d------------------------------------------------------------|

d------------------------------------------------------------|
g--3--3-3-3-----3-3-3--3--3-----3-3-3--3--3------------------|
c--2--2-2-2-----2-3-3--3--3-----3-4-4--4--4------------------|
f--0--0-0-0--0--0-0-0--0--0--0--0-0-0--0--0---0--0-2-3-2-0---|
a-----------------------------------------------3----------3-|
d------------------------------------------------------------|

chorus
d--------------------------------------------------------------|
g--------------------------------------------------------------|
c--------------------------------------------------------------|
f--5-7-7-5-7--7\------------------------5-7-7-5-7--7\----------|
a--3-5-5-3-5--5\----0-1-3---1h3p1p0-----3-5-5-3-5--5\----------|
d-----------------3------------------3-----------------3-5-6-5-|

d--------------------------------------------------------------|
g--------------------------------------------------------------|
c--------------------------------------------------------------|
f--5-7-7-5-7--7\------------------------5-7-7-5-7--7\----------|
a--3-5-5-3-5--5\----0-1-3---1h3p1p0-----3-5-5-3-5--5\----------|
d-----------------3------------------3-----------------3-5-6-5-|

outro solo
d----------------------------------------------------------------|
g-------------------18-17h18p17------------------------17-18-17--|
c--17h19--17h19--19-------------17---17h19--17h19---19-----------|
f----------------------------------------------------------------|
a----------------------------------------------------------------|
d----------------------------------------------------------------|

gtr 2, under the outro solo
d--------------------------------------------------------------|
g--------------------------------------------------------------|
c--------------------------------------------------------------|
f--5-7-7-5-7--7\------------------------5-7-7-5-7--7\----------|
a--3-5-5-3-5--5\----0-1-3---1h3p1p0-----3-5-5-3-5--5\----------|
d-----------------3------------------3-----------------3-5-6-5-|

d------------------------------------------------------------------------|
g-------------------17-18-17--18-17h18p17-----------------------17-18-17-|
c--17h19--17h19--19-----------------------17--17h19--17h19---19----------|
f------------------------------------------------------------------------|
a------------------------------------------------------------------------|
d------------------------------------------------------------------------|

gtr 2, under the outro solo
d--------------------------------------------------------------|
g--------------------------------------------------------------|
c--------------------------------------------------------------|
f--5-7-7-5-7--7\------------------------5-7-7-5-7--7\----------|
a--3-5-5-3-5--5\----0-1-3---1h3p1p0-----3-5-5-3-5--5\----------|
d-----------------3------------------3-----------------3-5-6-5-|

gtr 1, by itself
d------------------------------------------------------------|
g--3--3-3-3-----3-3-3--3--3-----3-3-3--3--3------------------|
c--2--2-2-2-----2-3-3--3--3-----3-4-4--4--4------------------|
f--0--0-0-0--0--0-0-0--0--0--0--0-0-0--0--0---0--0-2-3-2-0---|
a-----------------------------------------------3----------3-|
d------------------------------------------------------------|

d-----------------------------------------|
g-----------------------------------------|
c-----------------------------------------|
f--0----0--2--3--2--0-------5--7--7--5--7-|
a-----3----------------3----3--5--5--3--5-|
d-----------------------------------------|


12. SHOUT AT THE DEVIL (DEMO)
same as original


13. LOOKS THAT KILL (DEMO)
same as original


14. HOTTER THAN HELL
I haven't tabbed it yet


15. I WILL SURVIVE
PM- palm mute
- slide down
/- slide up
x- palm mute
br- bend release

d tuning- dafcgd

intro- x4
d-------------------------------------------------------------------|
a-------------------------------------------------------------------|
f-------------------9-8--------------------------9-8----------------|
c-------------------7-7--------------------------7-7----------------|
g-----/--0-0-0-0-0-------5-5-7br-5----0-0-0-0-0---------------------|
d-----------------------------------------------------0-5-5-8-8-7-7-|

verse- x2
d-----------------------------------------------------|
a-----------------------------------------------------|
f---------9-7----------------------9-7----------------|
c---------7-5--5-5-7br-5-----------7-5----------------|
g--0-0-0--------------------0-0-0---------------------|
d---------------------------------------0-5-5-8-8-7-7-|

pre chorus- x1
d-------------------------|
a-------------------------|
f-------------------------|
c--3--5---10--9--7--5--12-|
g--3--5---10--9--7--5--12-|
d--1--3---8---7--5--3--10-|

chorus- x2
d-------------------------------|
a-------------------------------|
f--2---5-7---7---10--9--7--5/12-|
c--2---5-7---7---10--9--7--5/12-|
g--0---3-5---5---8---7--5--3/10-|
d-------------------------------|

intro again- x4
d-------------------------------------------------------------|
a-------------------------------------------------------------|
f-------------9-8--------------------------9-8----------------|
c-------------7-7--------------------------7-7----------------|
g--0-0-0-0-0-------5-5-7br-5----0-0-0-0-0---------------------|
d-----------------------------------------------0-5-5-8-8-7-7-|

verse- x2
d-----------------------------------------------------|
a-----------------------------------------------------|
f---------9-7----------------------9-7----------------|
c---------7-5--5-5-7br-5-----------7-5----------------|
g--0-0-0--------------------0-0-0---------------------|
d---------------------------------------0-5-5-8-8-7-7-|

pre chorus- x1
d-------------------------|
a-------------------------|
f-------------------------|
c--3--5---10--9--7--5--12-|
g--3--5---10--9--7--5--12-|
d--1--3---8---7--5--3--10-|

chorus- x2
d-------------------------------|
a-------------------------------|
f--2---5-7---7---10--9--7--5/12-|
c--2---5-7---7---10--9--7--5/12-|
g--0---3-5---5---8---7--5--3/10-|
d-------------------------------|

interlude
    PM----------------------------------------------|
d---------------------------------------------------|
a---------------------------------------------------|
f--14-14-14-14-14-14-14-14-14-14-14-14-14-14-14-14--|
c--14-14-14-14-14-14-14-14-14-14-14-14-14-14-14-14--|
g--12-12-12-12-12-12-12-12-12-12-12-12-12-12-12-12--|
d---------------------------------------------------|

  all PM
d----------------------------------------------------------------------------|
a----------------------------------------------------------------------------|
f--14-14-14-14-14-14-14-14--12-12-12-12-12-12-12-12--10-10-10-10-10-10-10-10-|
c--14-14-14-14-14-14-14-14--12-12-12-12-12-12-12-12--10-10-10-10-10-10-10-10-|
g--12-12-12-12-12-12-12-12--10-10-10-10-10-10-10-10--8--8--8--8--8--8--8--8--|
d----------------------------------------------------------------------------|

   all PM
d-------------------------------------|
a-------------------------------------|
f--9-9-9-9-9-9-9-9--------------------|
c--9-9-9-9-9-9-9-9--------------------|
g--7-7-7-7-7-7-7-7----off to the solo-|
d-------------------------------------|

solo-

chorus- x2
d-------------------------------|
a-------------------------------|
f--2---5-7---7---10--9--7--5/12-|
c--2---5-7---7---10--9--7--5/12-|
g--0---3-5---5---8---7--5--3/10-|
d-------------------------------|

outro
d-----------------------------------------------|
a-----------------------------------------------|
f--10--9--7--5---10--9--7--5---10--9--7--5--7-5-|
c--10--9--7--5---10--9--7--5---10--9--7--5--7-5-|
g--8---7--5--3---8---7--5--3---8---7--5--3--5-3-|
d-----------------------------------------------|

                         at the very end of the song
d---------------------|-------|
a---------------------|-------|
f---------------------|-------|
c-----------------7-7-|-----7-|
g-----------------7-7-|-----7-|
d--0-5-5-8-8-7-7--5-5-|-----5-|


16. TOO YOUNG TO FALL IN LOVE (DEMO)
same as original
comments
We did not receive enough feedback on this tab! Please rate:
print report bad tab
1 2 3 4 5
3 comments total.
0 reply
greendaypunk901 wrote on April 4 2006, 09:24 pm

omg what the HELL IS THIS!

0 reply
greendaypunk901 wrote on April 4 2006, 09:25 pm

non accurate

+1 reply
Blackwater_Park wrote on August 24 2007, 06:41 pm

Ummmm, You mean Standard D not drop d that would be just your top string from e to d... nice try though... tab steeler!

I want to post or [tab]
guest
You may want to rate the tab now too:
select rating
Please do not post tabs as comments. Select "correction" instead!