Oops, an error
Loading. Please wait.

Starry Eyes Tab

ver4
ver4

Interactive

More versions @911Tabs.com
3,007 views 1 this week
1 commentread comment
1 2 3 4 5
not so good
x 3
add to favorites launch autoscroll
font size
0
reset
Autoscroll
+/-
esc
set tempo
stop
Contributor
WARNING: You are trying to view
                                    content from Ultimate-Guitar.com
                                    in an unauthorized application,
                                    which is prohibited.

                                    Please use an official Ultimate
                                    Guitar Tabs application for iPhone,
                                    iPad or Android to access legitimate
                                    chords, guitar, bass, and drum tabs
                                    from Ultimate-Guitar.com database.

                                    Type "ultimate guitar tabs" in Apple
                                    App Store's or Android Market's
                                    search to find the application.
Well for starters, I play this song totally different than any other stuff I have seen
any of the tab sites I have been to, so I figured that I would offer some input on this
because it is one of my favorites by the Crue.

It just seems like every other tab I try to play along with this tune sounds wrong even
I tune down and everything, so anyways here is how I play all the basic parts to "Starry
by Motley Crue.

Mick, you rule.....

(EDIT = FIXED 10/21/10)

Mötley Crüe - Starry Eyes
by: G. Thomas

Legend:
x= Plam Mute (muffled type pick chop).
(LRS) = Let Ring-a-Second or two.
(LR) = Let Ring
(QS) = Quickly Stop Strings from any further sound (after first initial sound rings).
(R) = Rest
(SU) = Slide Up to
(SD) = Slide Down to
(PS) = Pick Scrape (from the 12th fret or so towards the nut).
(SS) = Stop Sound when 2nd verse starts.

Play the first two open strings together softly and let ring for a second or two then
to play with palm mute (muffled type pick chop) on the two open strings then play the rest
the notes clean till noted otherwise. All open strings are played "choppy" like with 
palm mutes after they are played unless otherwise noted.


     Intro:
D ||------------------------------------------------------------------------|
A |-------------------------------------------------------------------------|
E ||--0-(LRS)--x-x-4-4-2-4--------------------x-4-(LRS)-xx-4-4-2-4----------|
C ||--0--------x-x-5-5-3-5-4-4-(LRS)--4-4-2-4-x-5-------xx-5-5-3-5-4-4-(LRS)|
G ||-----------------------5-5------xx5-5-3-5----------------------5-5------|
D ||------------------------------------------------------------------------|

                                                         1st Verse:
------------------------------------------------------------------------|
------------------------------------------------------------------------|
-----------------0-(QS)---4-4-4-4-4-------------------------------------|
-x-4-4-2-4-2-2-x-0--------5-5-5-5-5-4----(R)--4-4-4-4-4-(SD)-2--(R)-----|
-x-5-5-3-5-3-3----------------------5---------5-5-5-5-5------3----------|
------------------------------------------------------------------------|


-------------------------------------------------------------------|
-------------------------------------------------------------------|
---------------------------------4-------4-4-4-4-4-----------------|
--2-2-2-2-2-(SU)-4--(R)4-4-4-4-4-5--(R)--5-5-5-5-5-4--(R)----------|
--3-3-3-3-3------5-----5-5-5-5-5-------------------5---------------|
-------------------------------------------------------------------|


                                                               Build up: 7 chops
---------------------------------------------------------------------|
---------------------------------------------------------------------|
----------------------------------------(PS)-------------------------|
--4-4-4-4-4-(SD)-2-(R)-2-2-2-2-2-(SU)-4-(PS)-------------------------|
--5-5-5-5-5------3-----3-3-3-3-3------5------------------------------|
-----------------------------------------------x-x-x-x-x-x--x--------|

Chorus:
------------------------------------------------------------------------|
------------------------------------------------------------------------|
------------------------------------------------------------------------|
--9--(SD)----5-7-(SD)----5-7-(SD)----5------------9-(SD)----5-7-(SD)----|
--7----------3-5---------3-5---------3----3-2~----7---------3-5---------|
----------x-x--------x-x---------x-x---0~---------------x-x-------------|

                                                                  Music Bridge:
------------------------------------------------------------------------|
------------------------------------------------------------------------|
-----------------------------4-(LRS)--4-4-2-4---------------------4-----|
-----5-7-(SD)-----5----------5--------5-5-3-5-4-4---------4-4-2-4-5-x-x-|
-----3-5----------3----3-2~-------------------5-5-x-x-x-x-5-5-3-5-------|
-x-x---------x-x---0~---------------------------------------------------|

---------------------------------------------|
---------------------------------------------| 2nd Verse Same as the First
-----4-4-2-4---------------------4~~-(SS)----|
-x-x-5-5-3-5-4-4---------4-4-2-4-5~~---------| Then Build up: 7 chops again
-------------5-5-x-x-x-x-5-5-3-5-------------|
---------------------------------------------|


Repeat Chorus Section:
---------------------------------------------------------------------|
---------------------------------------------------------------------|
---------------------------------------------------------------------|
--9--(SD)----5-7-(SD)---5-7-(SD)----5------------9-(SD)----5-7-(SD)--|
--7----------3-5--------3-5---------3----3-2~----7---------3-5-------|
---------x-x--------x-x---------x-x---0~---------------x-x-----------|


-----------------------------------|
-----------------------------------|
-----5-7-(SD)-----5----------------|
-----3-5----------3----3-2~--------|
--x-x---------x-x---0~-------------|


Repeat this section 8 times           Play twice                   Play Twice
----------------------l:     --------------------l:   --------------------l:
----------------------l:     --------------------l:   --------------------l:
----------------------l:     --------------------l:   --------------------l:
----------2-----------l:     --------------------l:   -----------2--------l:
--0-3-2-3---3-2-3-----l:     -----------2--------l:   ---0-3-2-3---3-2-3--l:
----------------------|:     ---0-3-2-3---3-2-3--l:   --------------------l:

Play twice
------------------|:     -------------------------------------------------|
------------------|:     -------------------------------------------------|
------------------|:     ---------------------------------5~~-(LR)--------|
------------------|:     ---------2---------------2-------5~~-------------|
----------2-------|:     -0-3-2-3---3-2-3-0-3-2-3---3-2-3-3~~-------------|
--0-3-2-3---3-2-3-|:     -------------------------------------------------|


Solo:           (will update when solo is figured out)
--------------------------------------------------------------------|
--------------------------------------------------------------------|
--------------------------------------------------------------------|
--------------------------------------------------------------------|
--------------------------------------------------------------------|
--------------------------------------------------------------------|


~G. Thomas / Kilpile ..........  Peace out for now....
comments
We did not receive enough feedback on this tab! Please rate:
print report bad tab
1 2 3 4 5
1 comment total.
0 reply
Kilpile wrote on March 19 2009, 06:29 pm

The "E" string is off center in the above tab guys by one spce, how that happend I don't know. Every thing on that "E" string should be shifted left one space, so the first "Two" open notes are together ect.

The "E" string is also a little off center in the second set of tab also in the first verse the 4's and 5's should be played together. The "C" string before the build up is off center also the 2's and 3's should be played together along with the 4 - 5 there.

This offset must of happend when I copied it from the note pad, and I apologize for this.

The Music bridge is slightly off set also and the notes shouid be played together there also, The repeat chours section is also off center too.... the 5's and 3's should be played to gether along with the 7's and 5's...

Is there any way I can edit the Tab here?

I want to post or [tab]
guest
You may want to rate the tab now too:
select rating
Please do not post tabs as comments. Select "correction" instead!