Oops, an error
Loading. Please wait.

Theatre Of Pain Tab

6,446 views 9 this week
1 commentread comment
1 2 3 4 5
worth learning
x 2
Autoscroll
+/-
esc
set tempo
stop
Hey! There's an official Ultimate Guitar app which is ideal
for learning songs when you're away from computer. Get the app
WARNING: You are trying to view
                                    content from Ultimate-Guitar.com
                                    in an unauthorized application,
                                    which is prohibited.

                                    Please use an official Ultimate
                                    Guitar Tabs application for iPhone,
                                    iPad or Android to access legitimate
                                    chords, guitar, bass, and drum tabs
                                    from Ultimate-Guitar.com database.

                                    Type "ultimate guitar tabs" in Apple
                                    App Store's or Android Market's
                                    search to find the application.
City Boy Blues

D------3-----3--3-----3-----3--3-----3-----3--3--|------------------------------|
A------3-----3--3-----2-----2--2-----1-----1--1--|------------------------------|
F------------------------------------------------|------------------------------|
C------------------------------------------------|------------------------------|
G------------------------------------------------|------------------------------|
D------------------------------------------------|------------------------------|

D---------------------------|---------------------------------------------------|
A---------------------------|---------------------------------------------------|
F---------------------------|---------------------------------------------------|
C---------------------------|---------------------------------------------------|
G------------------5--4-----|---------------------------------------------------|
D---0-----0--2--3-----------|---------------------------------------------------|

D------3-----3--3-----3-----3--3-----3-----3--3--|------------------------------|
A------3-----3--3-----2-----2--2-----1-----1--1--|------------------------------|
F------------------------------------------------|------------------------------|
C------------------------------------------------|------------------------------|
G------------------------------------------------|------------------------------|
D------------------------------------------------|------------------------------|

D---------------------------|--3-----3--3-----3-----3--3-----3-----3--3--|------|
A---------------------------|--3-----3--3-----2-----2--2-----1-----1--1--|------|
F---------------------------|--------------------------------------------|------|
C---------------------------|--------------------------------------------|------|
G------------------5--4-----|--------------------------------------------|------|
D---0-----0--2--3-----------|--------------------------------------------|------|

D---------------------------|---------------------------------------------------|
A---------------------------|---------------------------------------------------|
F---------------------------|---------------------------------------------------|
C---------------------------|---------------------------------------------------|
G------------------5--4-----|---------------------------------------------------|
D---0-----0--2--3-----------|---------------------------------------------------|

D---------------------------------------------------|---------------------------|
A---------------------------------------------------|---------------------------|
F---------------------------------------------------|---------------------------|
C---------------------------------------------------|---------------------------|
G------------7-----5--7-----------5--7--------5--4--|---------------------------|
D------0--------------------0-----------2--3--------|---------------------------|

D---------------------------------------------------------------------|---------|
A---------------------------------------------------------------------|---------|
F---------------------------------------------------------------------|---------|
C---------------------------5-----7--7--5--7-----5--7-----7--7-----5--|---------|
G---------------------------5-----7--7--5--7-----5--7-----5--7-----5--|---------|
D---------------------------------------------------------------------|---------|

D--------------------------------------------------|----------------------------|
A--------------------------------------------------|----------------------------|
F--------------------------------------------------|----------------------------|
C---12-----14--14-----14-----12-----14--14-----14--|----------------------------|
G---12-----14--14-----14-----12-----14--14-----14--|----------------------------|
D--------------------------------------------------|----------------------------|

D---------------------------------------------------|---------------------------|
A---------------------------------------------------|---------------------------|
F---------------------------------------------------|---------------------------|
C---------5-----7--7--5--7-----5--7-----7--7-----5--|---------------------------|
G---------5-----7--7--5--7-----5--7-----5--7-----5--|---------------------------|
D---------------------------------------------------|---------------------------|

D--------------------------------------------------|----------------------------|
A--------------------------------------------------|----------------------------|
F--------------------------------------------------|----------------------------|
C---12-----14--14-----14-----12-----14--14-----14--|----------------------------|
G---12-----14--14-----14-----12-----14--14-----14--|----------------------------|
D--------------------------------------------------|----------------------------|


D---------------------------------------------------|---------------------------|
A---------------------------------------------------|---------------------------|
F---------------------------------------------------|---------------------------|
C---------5-----7--7--5--7-----5--7-----7--7-----5--|---------------------------|
G---------5-----7--7--5--7-----5--7-----5--7-----5--|---------------------------|
D---------------------------------------------------|---------------------------|

D--------------------------------------------------|----------------------------|
A--------------------------------------------------|----------------------------|
F--------------------------------------------------|----------------------------|
C---12-----14--14-----14-----12-----14--14-----14--|----------------------------|
G---12-----14--14-----14-----12-----14--14-----14--|----------------------------|
D--------------------------------------------------|----------------------------|

D---------------------------------------------------|---------------------------|
A---------------------------------------------------|---------------------------|
F---------------------------------------------------|---------------------------|
C---------5-----7--7--5--7-----5--7-----7--7-----5--|---------------------------|
G---------5-----7--7--5--7-----5--7-----5--7-----5--|---------------------------|
D---------------------------------------------------|---------------------------|

D--------------------------------------------------|----------------------------|
A--------------------------------------------------|----------------------------|
F--------------------------------------------------|----------------------------|
C---12-----14--14-----14-----12-----14--14-----14--|----------------------------|
G---12-----14--14-----14-----12-----14--14-----14--|----------------------------|
D--------------------------------------------------|----------------------------|

D---------------------------------------------------------|---------------------|
A---------------------------------------------------------|---------------------|
F------------------------9--8-----------------------------|---------------------|
C---------9-----9--9--9--9-----9--9-----------------------|---------------------|
G---------9-----9--9--9--9-----9--9-----------5-----------|---------------------|
D------------------------------------0--2--3-----0--2--3--|---------------------|

D-------------------------------------------------------------------------------|
A-------------------------------------------------------------------------------|
F-------------------------------------------------------------------------------|
C-------------------------------------------------------------------------------|
G---------------------------------------------------------4--5-----------2------|
D---------------------------------------------------0--------------0------------|

D------------------|--------------------------------------|---------------------|
A------------------|--------------------------------------|---------------------|
F------------------|--------------------------------------|---------------------|
C------------------|-----4--5--------2--4--5-----4--5-----|---------------------|
G---4--5-----4--5--|--0--------0--------------0-----------|---------------------|
D---------0--------|--------------------------------------|---------------------|

D---------------------------------------------------------|---------------------|
A---------------------------------------------------------|---------------------|
F---------------------------------------------------------|---------------------|
C---------------------------------------------------------|---------------------|
G------------------------4--5-----------2--4--5-----4--5--|---------------------|
D------------------0--------------0--------------0--------|---------------------|

D---------------------------------------|---------------------------------------|
A---------------------------------------|---------------------------------------|
F---------------------------------------|---------------------------------------|
C------4--5--------2--4--5-----4--5-----|---------------------------------------|
G---0--------0--------------0-----------|---------------------------------------|
D---------------------------------------|---------------------------------------|

D---------------------------------------------------------|---------------------|
A---------------------------------------------------------|---------------------|
F---------------------------------------------------------|---------------------|
C---------------------------------------------------------|---------------------|
G------------------------4--5-----------2--4--5-----4--5--|---------------------|
D------------------0--------------0--------------0--------|---------------------|

D------------------------------------|------------------------------------------|
A------------------------------------|------------------------------------------|
F---------------------9--8-----------|------------------------------------------|
C------9-----9--9--9--9-----9--9-----|------------------------------------------|
G------9-----9--9--9--9-----9--9-----|------------------------------------------|
D------------------------------------|------------------------------------------|

D---------------------------------------------------------------------|---------|
A---------------------------------------------------------------------|---------|
F---------------------------------------------------------------------|---------|
C---------------------------------------------------------------------|---------|
G------------------------------7-----5--7-----------5--7--------5--4--|---------|
D------------------------0--------------------0-----------2--3--------|---------|

D---------------------------------------------------|---------------------------|
A---------------------------------------------------|---------------------------|
F---------------------------------------------------|---------------------------|
C---------------------------------------------------|---------------------------|
G------------7-----5--7-----------5--7--------5--4--|---------------------------|
D------0--------------------0-----------2--3--------|---------------------------|

D---------------------------------------------------|---------------------------|
A---------------------------------------------------|---------------------------|
F---------------------------------------------------|---------------------------|
C---------5-----7--7--5--7-----5--7-----7--7-----5--|---------------------------|
G---------5-----7--7--5--7-----5--7-----5--7-----5--|---------------------------|
D---------------------------------------------------|---------------------------|

D--------------------------------------------------|----------------------------|
A--------------------------------------------------|----------------------------|
F--------------------------------------------------|----------------------------|
C---12-----14--14-----14-----12-----14--14-----14--|----------------------------|
G---12-----14--14-----14-----12-----14--14-----14--|----------------------------|
D--------------------------------------------------|----------------------------|

D---------------------------------------------------|---------------------------|
A---------------------------------------------------|---------------------------|
F---------------------------------------------------|---------------------------|
C---------5-----7--7--5--7-----5--7-----7--7-----5--|---------------------------|
G---------5-----7--7--5--7-----5--7-----5--7-----5--|---------------------------|
D---------------------------------------------------|---------------------------|

D--------------------------------------------------|----------------------------|
A--------------------------------------------------|----------------------------|
F--------------------------------------------------|----------------------------|
C---12-----14--14-----14-----12-----14--14-----14--|----------------------------|
G---12-----14--14-----14-----12-----14--14-----14--|----------------------------|
D--------------------------------------------------|----------------------------|

D---------------------------------------------------------|---------------------|
A---------------------------------------------------------|---------------------|
F------------------------9--8-----------------------------|---------------------|
C---------9-----9--9--9--9-----9--9-----------------------|---------------------|
G---------9-----9--9--9--9-----9--9-----------5-----------|---------------------|
D------------------------------------0--2--3-----0--2--3--|---------------------|

D-------------------------------------------------------------------------------|
A-------------------------------------------------------------------------------|
F-------------------------------------------------------------------------------|
C-------------------------------------------------------------------------------|
G------------------------------------------------------------4--5---------------|
D------------------------------------------------------0--------------0---------|

D---------------------|--------------------------------------|------------------|
A---------------------|--------------------------------------|------------------|
F---------------------|--------------------------------------|------------------|
C---------------------|-----4--5--------2--4--5-----4--5-----|------------------|
G---2--4--5-----4--5--|--0--------0--------------0-----------|------------------|
D------------0--------|--------------------------------------|------------------|

D---------------------------------------------------------|---------------------|
A---------------------------------------------------------|---------------------|
F---------------------------------------------------------|---------------------|
C---------------------------------------------------------|---------------------|
G------------------------4--5-----------2--4--5-----4--5--|---------------------|
D------------------0--------------0--------------0--------|---------------------|

D---------------------------------------|---------------------------------------|
A---------------------------------------|---------------------------------------|
F---------------------------------------|---------------------------------------|
C------4--5--------2--4--5-----4--5-----|---------------------------------------|
G---0--------0--------------0-----------|---------------------------------------|
D---------------------------------------|---------------------------------------|

D---------------------------------------------------------|---------------------|
A---------------------------------------------------------|---------------------|
F---------------------------------------------------------|---------------------|
C---------------------------------------------------------|---------------------|
G------------------------4--5-----------2--4--5-----4--5--|---------------------|
D------------------0--------------0--------------0--------|---------------------|

D------------------------------------|------------------------------------------|
A------------------------------------|------------------------------------------|
F---------------------9--8-----------|------------------------------------------|
C------9-----9--9--9--9-----9--9-----|------------------------------------------|
G------9-----9--9--9--9-----9--9-----|------------------------------------------|
D------------------------------------|------------------------------------------|

D------------------3-----3--3-----3-----3--3-----3-----3--3--|------------------|
A------------------3-----3--3-----2-----2--2-----1-----1--1--|------------------|
F------------------------------------------------------------|------------------|
C------------------------------------------------------------|------------------|
G------------------------------------------------------------|------------------|
D------------------------------------------------------------|------------------|

D------------------------------|------------------------------------------------|
A------------------------------|------------------------------------------------|
F------------------------------|------------------------------------------------|
C------------------------------|------------------------------------------------|
G------------------5--4--------|------------------------------------------------|
D---0-----0--2--3--------------|------------------------------------------------|

D------3-----3--3-----3-----3--3-----3-----3--3--|------------------------------|
A------3-----3--3-----2-----2--2-----1-----1--1--|------------------------------|
F------------------------------------------------|------------------------------|
C------------------------------------------------|------------------------------|
G------------------------------------------------|------------------------------|
D------------------------------------------------|------------------------------|

D---------------------------|---------------------------------------------------|
A---------------------------|---------------------------------------------------|
F---------------------------|---------------------------------------------------|
C---------------------------|---------------------------------------------------|
G------------------5--4-----|---------------------------------------------------|
D---0-----0--2--3-----------|---------------------------------------------------|

D------3-----3--3-----3-----3--3-----3-----3--3--|------------------------------|
A------3-----3--3-----2-----2--2-----1-----1--1--|------------------------------|
F------------------------------------------------|------------------------------|
C------------------------------------------------|------------------------------|
G------------------------------------------------|------------------------------|
D------------------------------------------------|------------------------------|

D---------------------------|---------------------------------------------------|
A---------------------------|---------------------------------------------------|
F---------------------------|---------------------------------------------------|
C---------------------------|---------------------------------------------------|
G------------------5--4-----|---------------------------------------------------|
D---0-----0--2--3-----------|---------------------------------------------------|

D---------------------------------------------------|---------------------------|
A---------------------------------------------------|---------------------------|
F---------------------------------------------------|---------------------------|
C---------------------------------------------------|---------------------------|
G------------7-----5--7-----------5--7--------5--4--|---------------------------|
D------0--------------------0-----------2--3--------|---------------------------|

D---------------------------------------------------|---------------------------|
A---------------------------------------------------|---------------------------|
F---------------------------------------------------|---------------------------|
C---------------------------------------------------|---------------------------|
G------------7-----5--7-----------5--7--------5--4--|---------------------------|
D------0--------------------0-----------2--3--------|---------------------------|

D---------------------------------------------|---------------------------------|
A---------------------------------------------|---------------------------------|
F---------------------------------------------|---------------------------------|
C---------7-----5--7--------5--7--------5--4--|---------------------------------|
G---0-----------------0-----------2--3--------|---------------------------------|
D---------------------------------------------|---------------------------------|

D---------------------------------------------------|---------------------------|
A---------------------------------------------------|---------------------------|
F---------------------------------------------------|---------------------------|
C---------------------------------------------------|---------------------------|
G------------7-----5--7-----------5--7--------5--4--|---------------------------|
D------0--------------------0-----------2--3--------|---------------------------|

D---------------------------------------------|---------------------------------|
A---------------------------------------------|---------------------------------|
F---------------------------------------------|---------------------------------|
C---------7-----5--7--------5--7--------5--4--|---------------------------------|
G---0-----------------0-----------2--3--------|---------------------------------|
D---------------------------------------------|---------------------------------|

D---------------------------------------------------|---------------------------|
A---------------------------------------------------|---------------------------|
F---------------------------------------------------|---------------------------|
C---------------------------------------------------|---------------------------|
G------------7-----5--7-----------5--7--------5--4--|---------------------------|
D------0--------------------0-----------2--3--------|---------------------------|

D-------------------------------|-----------------------------------------------|
A-------------------------------|-----------------------------------------------|
F-------------------------------|-----------------------------------------------|
C---9-----9--9--9--9--9---\--7--|-----------------------------------------------|
G---9-----9--9--9--9--9--\---7--|-----------------------------------------------|
D-------------------------------|-----------------------------------------------|

D---------------------------------------------|---------------------------------|
A---------------------------------------------|---------------------------------|
F---------------------------------------------|---------------------------------|
C---------------------------------------------|---------------------------------|
G------------4--5-----------2--4--5-----4--5--|---------------------------------|
D------0--------------0--------------0--------|---------------------------------|

D---------------------------------------|---------------------------------------|
A---------------------------------------|---------------------------------------|
F---------------------------------------|---------------------------------------|
C------4--5--------2--4--5-----4--5-----|---------------------------------------|
G---0--------0--------------0-----------|---------------------------------------|
D---------------------------------------|---------------------------------------|

D---------------------------------------------------------|---------------------|
A---------------------------------------------------------|---------------------|
F---------------------------------------------------------|---------------------|
C---------------------------------------------------------|---------------------|
G------------------------4--5-----------2--4--5-----4--5--|---------------------|
D------------------0--------------0--------------0--------|---------------------|

D---------------------------------------|---------------------------------------|
A---------------------------------------|---------------------------------------|
F---------------------------------------|---------------------------------------|
C------4--5--------2--4--5-----4--5-----|---------------------------------------|
G---0--------0--------------0-----------|---------------------------------------|
D---------------------------------------|---------------------------------------|

D---------------------------------------------------------|---------------------|
A---------------------------------------------------------|---------------------|
F---------------------------------------------------------|---------------------|
C---------------------------------------------------------|---------------------|
G------------------------4--5-----------2--4--5-----4--5--|---------------------|
D------------------0--------------0--------------0--------|---------------------|

D---------------------------------------|---------------------------------------|
A---------------------------------------|---------------------------------------|
F---------------------9--8--------------|---------------------------------------|
C------9-----9--9--9--9-----9--7--------|---------------------------------------|
G------9-----9--9--9--9-----9--7--------|---------------------------------------|
D---------------------------------------|---------------------------------------|

D---------------------------------------------------------|---------------------|
A---------------------------------------------------------|---------------------|
F---------------------------------------------------------|---------------------|
C---------------------------------------------------------|---------------------|
G------------------------4--5-----------2--4--5-----4--5--|---------------------|
D------------------0--------------0--------------0--------|---------------------|

D------------------------------------|------------------------------------------|
A------------------------------------|------------------------------------------|
F---------------------9--8-----------|------------------------------------------|
C------9-----9--9--9--9-----9--7-----|------------------------------------------|
G------9-----9--9--9--9-----9--7-----|------------------------------------------|
D------------------------------------|------------------------------------------|

D---------------------------------------------------------|---------------------|
A---------------------------------------------------------|---------------------|
F---------------------------------------------------------|---------------------|
C---------------------------------------------------------|---------------------|
G------------------------4--5-----------2--4--5-----4--5--|---------------------|
D------------------0--------------0--------------0--------|---------------------|

D------------------------------------|------------------------------------------|
A------------------------------------|------------------------------------------|
F---------------------9--8-----------|------------------------------------------|
C------9-----9--9--9--9-----9--7-----|------------------------------------------|
G------9-----9--9--9--9-----9--7-----|------------------------------------------|
D------------------------------------|------------------------------------------|


       repeat and fade out
D---------------------------------------------|---------------------------------|
A---------------------------------------------|---------------------------------|
F---------------------------------------------|---------------------------------|
C---------------------------------------------|---------------------------------|
G------------4--5-----------2--4--5-----4--5--|---------------------------------|
D------0--------------0--------------0--------|---------------------------------|


Smokin In The Boys Room

intro-x2                      last time only
D----------------------------|-----
G----------------------------|-----
C----------------------------|-----
F-8/9----8/9-----8/9----8/9^-|-8/9-
A-6/7----6/7-----6/7----6/7^-|-6/7-
D----------------------------|-----

verse
D---------------------------------------
G---------------------------------------
C---------------------------------------
F-8/9^----------------8/9^--------------
A-6/7^--9/10--9/10----6/7^---9/10--9/10-
D-------7/8---7/8------------7/8----7/8-

chorus- PM all, played pretty fast
D----------------------------------
G----------------------------------
C----------------------------------
F----------------------------------
A-7-7-9-9-7-7-9-9--7-7-9-9-7-7-9-9-
D-5-5-5-5-5-5-5-5--5-5-5-5-5-5-5-5-

Fill 1
  1/2   1/2       
D---------------
G---------------
C-5b------------
F-----7---------
A--------3b-----
D------------5^-

D------------------------------------------
G------------------------------------------
C------------------------------------------
F-9-9-11-11-9-9-11-11--9-9-11-11-9-9-11-11-
A-7-7--7-7--7-7--7-7---7-7--7--7-7-7--7--7-
D------------------------------------------

full,ah
D---------------
G---------------
C-9b^-----------
F-------5--5----
A-------------7-
D---------------

this ones played under the fill, so you dont really hear it
D------------------------------------------
G------------------------------------------
C------------------------------------------
F-9-9-11-11-9-9-11-11--9-9-11-11-9-9-11-11-
A-7-7--7-7--7-7--7-7---7-7--7--7-7-7--7--7-
D------------------------------------------

D-----------------------------------------------------------
G-----------------------------------------------------------
C-----------------------------------------------------------
F-----------------------------------------------------------
A-9-9-11-11-9-9-11-11--7-7-9-9-7-7-9-7--9-9-11-11-9-9-11--7-
D-7-7--7--7-7-7--7--7--5-5-5-5-5-5-5-5--7-7--7--7-7-7--7--5-

verse
D------------------------------
G------------------------------
C------------------------------
F-8/9----8/9---8/7----8/9^-----
A-6/7----6/7---6/7----6/7^-----
D----------------5-------------

D-----------------------------------
G-----------------------------------
C-----------------------------------
F---------------8/9^----------------
A-9/10---9/10---6/7^---9/10----9/10-
D-7/8----7/8-----------7/8-----7/8--

chorus- PM all, played pretty fast
D----------------------------------
G----------------------------------
C----------------------------------
F----------------------------------
A-7-7-9-9-7-7-9-7--7-7-9-7-7-7-9-7-
D-5-5-5-5-5-5-5-5--5-5-5-5-5-5-5-5-

Fill 2
  1/2     ah     
D----------------
G----------------
C----------5-----
F-------------7^-
A-3b----0--------
D----------------

D-------------------------------------
G-------------------------------------
C-------------------------------------
F-9-9-11-9-9-9-11-9-9-9-11-9-9-9-11-9-
A-7-7-7--7-7-7-7--7-7-7-7--7-7-7-7--7-
D-------------------------------------

         |-1/4-|
D----------------------
G----------------------
C----------------------
F--------5b-5b-5b------
A-----7-------------7^-
D----------------------

this ones played under the fill, so you dont really hear it
D----------------------------------
G----------------------------------
C----------------------------------
F----------------------------------
A-7-7-9-7-7-7-9-7--7-7-9-7-7-7-9-7-
D-5-5-5-5-5-5-5-5--5-5-5-5-5-5-5-5-

D-------------------------------------
G-------------------------------------
C-------------------------------------
F-------------------------------------
A-9-9-11-9-9-9-11-9-9-9-11-9-9-9-11-9-
D-7-7-7--7-7-7-7--7-7-7-7--7-7-7-7--7-

D-------------
G-------------
C-------------
F-8/9----8/9^-
A-6/7----6/7^-
D-------------

harmonica solo- chorus PM under it
D----------------------------------
G----------------------------------
C----------------------------------
F----------------------------------
A-7-7-9-9-7-7-9-7--7-7-9-7-7-7-9-7-
D-5-5-5-5-5-5-5-5--5-5-5-5-5-5-5-5-

D-------------------------------------
G-------------------------------------
C-------------------------------------
F-9-9-11-9-9-9-11-9-9-9-11-9-9-9-11-9-
A-7-7-7--7-7-7-7--7-7-7-7--7-7-7-7--7-
D-------------------------------------

D----------------------------------
G----------------------------------
C----------------------------------
F----------------------------------
A-7-7-9-7-7-7-9-7--7-7-9-7-7-7-9-7-
D-5-5-5-5-5-5-5-5--5-5-5-5-5-5-5-5-

D-------------------------------------
G-------------------------------------
C-------------------------------------
F-------------------------------------
A-9-9-11-9-9-9-11-9-9-9-11-9-9-9-11-9-
D-7-7-7--7-7-7-7--7-7-7-7--7-7-7-7--7-

guitar solo- chorus PM under it, 
parts of the harmonica solo are slipped in here and there
                                                          
                                            1/2     1/2           full    
D-----------------------------------------------------------------------------
G-----------------------------------------------------------------------------
C-4/6-----9\7------5/6-------------------------------12b-------12-14b-12------
F------7-------7---------7\5----------------5b------------14\-------------12/-
A------------------------------7-6-5-------------7/---------------------------
D--------------------------------------7-5------------------------------------

harmonica here 

D-------------------------------------------------------------------------------
G---------------------------------------------/16-16----------------------------
C-----14-14\12------12-14-------12-14/10-14/--/16-16-16\14------16\14-----14-16-
F-/14-----------14-----------13-----------------------------16---------16-------
A-------------------------------------------------------------------------------
D-------------------------------------------------------------------------------

harmonica somewhere around here

                  full
D--------------------------5---------------------------------------------------
G-/19/19/16--------8b--8------8-7-5-------5------------------------------------
C-------------16\--------------------8-7----8-7---5-----7-5--------------------
F----------------------------------------------------7-------7-5---------------
A------------------------------------------------------------------7-6-5-5-5-0-
D------------------------------------------------------------------------------

                                  ah      
             1/2             1/4 full 1/4   ah----|
D-------------------------------------------------------------------------------
G-7/8--8------8b----------------------------------------------------------------
C-----------------pick slide--12b-14b-12b-------------14-14\12------12-14-------
F-4/5--5-----------9/-14--------------------14---/14-------------13----------13-
A---------7/--------------------------------------------------------------------
D-------------------------------------------------------------------------------

                        f u l l   f u l l
D------------------------------------------
G---------13/14---------2--2--2---7--7--7--
C-12-14----------14\4---4b-4b-4b--9b-9b-9b-
F------------------------------------------
A------------------------------------------
D------------------------------------------

verse- x1
D---------------------------------------------------------
G---------------------------------------------------------
C---------------------------------------------------------
F-8/9-----8/9-----------------8/9----8/9----------------7-
A-6/7-----6/7----9/10--9/10---6/7----6/7---9/10--9/10---7-
D----------------7/8---7/8-----------------7/8---7/8----5-

chorus- PM, slower than the other chorus
D-------------------------------------
G-------------------------------------
C-------------------------------------
F-------------------------------------
A-9-9-11-11-9-9-11-9--7-7-9-9-7-7-9-7-
D-7-7-7--7--7-7-7--7--5-5-5-5-5-5-5-5-

                           "one more time..."  onto the outro         
D-------------------------------------------------
G-------------------------------------------------
C--------------------------------------9-11-12-13-
F---------------------7-----8/9--8/9---9-11-12-13-
A-9-9-11-11-9-9-11----7-----6/7--6/7---7--9-10-11-
D-7-7-7--7--7-7--7----5---------------------------

-break-

D-------------------------------------------------
G-------------------------------------------------
C--------------------------------------9-11-12-13-
F--------------------7------8/9--8/9---9-11-12-13-
A-7-7-9-9-7-7-9-7----7------6/7--6/7---7--9-10-11-
D-5-5-5-5-5-5-5-5----5----------------------------


outro and free time solo for two guitars, play the usuall chorus PM under this
until the the final slide

gtr 1 
    ah
    full   1/4 1/4  
D--------------------------------------------------------------------------
G----7b--------------------------------------------------------------------
C-----------5b-5b---5--------------------------------------12--------------
F-------------------------7----------14-13-12------------------14--14/-----
A------------------------------------------------14-13-12----------------7-
D------------------------------------------------------------------------5-

PM
D-------------------------------------
G-------------------------------------
C-------------------------------------
F-------------------------------------
A-9-9-11-11-9-9-11-9--7-7-9-9-7-7-9-7-
D-7-7-7--7--7-7-7--7--5-5-5-5-5-5-5-5-

gtr 1
D-----------------------------7\-
G-----------------------7-----7\-
C------------------7----------7\-
F------6------9---------------6\-
A-7---------------------------7\-
D--------------------------------

gtr 2
D---------------------------------------
G---------------------------------------
C---------------------------------------
F------------------------------------8/-
A-4-4-6-6-4-4-4-4-----9-9-9--9-9-9---6/-
D-2-2-2-2-2-2-2-2-----7-7-7--7-7-7------

Louder Than Hell

intro
     PM     PM     PM    PM     PM    PM
d---------------------------------------------
g---------------------------------------------
c-\-2-----5-------7----5-------2-----5------0-
f-\-2-----5-------7----5-------2-----5------0-
a-\-0--0-----0-0-----0---0--0--0--0----0--0---
d---------------------------------------------

      PM   PM     PM     PM    PM    PM       ah
d-----------------------------------------------------
g-----------------------------------------------------
c--2-----5------7----5-------2-----5------0--7b-(7)-5-
f--2-----5------7----5-------2-----5------0-----------
a--0--0-----0-0----0---0--0--0--0----0--0-------------
d-----------------------------------------------------

      PM     PM     PM     PM       PM    PM 
d-------------------------------------------------
g-------------------------------------------------
c--2-----5--------7-----5--------2-----5--------0-
f--2-----5--------7-----5--------2-----5--------0-
a--0--0-----0--0-----0-----0--0--0--0-----0--0----
d-------------------------------------------------

d-------------------------------------------
g-------------------------------------------
c-------------------------------------------
f--7~~~~-------------------------(7)--------
a--------------------------------------0-\/-
d-------------------------------------------


verse
          PM      PM          PM        PM         PM        PM         PM 
d------------------------------------------------------------------------------
g------------------------------------------------------------------------------
c----2-------5--------7-----------5--------2-----------5--------4--------------
f----2-------5--------7-----------5--------2-----------5--------5---------5--6-
a-0----0--0-----0--0-----0-0-0-0-----0--0-----0-0-0-0-----0--0-----0-0-0--5--6-
d-------------------------------------------------------------------------3--4-

          PM      PM          PM        PM         PM        PM         PM 
d-------------------------------------------------------------------------------
g-------------------------------------------------------------------------------
c----2--------5--------7-----------5--------2-----------5--------4--------------
f----2--------5--------7-----------5--------2-----------5--------5---------5--6-
a-0-----0--0-----0--0-----0-0-0-0-----0--0-----0-0-0-0-----0--0-----0-0-0--5--6-
d--------------------------------------------------------------------------3--4-

          PM      PM          PM        PM         PM        PM         PM 
d------------------------------------------------------------------------------
g------------------------------------------------------------------------------
c---2--------5--------7-----------5--------2-----------5--------4--------------
f---2--------5--------7-----------5--------2-----------5--------5---------5--6-
a-0----0--0-----0--0-----0-0-0-0-----0--0-----0-0-0-0-----0--0-----0-0-0--5--6-
d-------------------------------------------------------------------------3--4-

          PM      PM          PM        PM         PM        PM         PM 
d------------------------------------------------------------------------------
g------------------------------------------------------------------------------
c----2-------5--------7-----------5--------2-----------5--------4--------------
f----2-------5--------7-----------5--------2-----------5--------5---------5--6-
a-0----0--0-----0--0-----0-0-0-0-----0--0-----0-0-0-0-----0--0-----0-0-0--5--6-
d-------------------------------------------------------------------------3--4-

pre chorus
d-----------------------------------------------------------
g-----------------------------------------------------------
c----------------5~~---------------------------5~~----------
f--7~~----3~~-----------5---5-5----7~~----3~~---------------
a-----------------------5---5-5-----------------------------
d---------------------3-3-3-3-3-----------------------/17-\-

gtr 2
d---------------------------------------------------------
g----------------5~~----3~~------------------3~~----------
c--5~~----2~~------------------5~~----2~~-----------------
f---------------------------------------------------------
a---------------------------------------------------/17-\-
d---------------------------------------------------------

chours
d-----------------------------------------------------------------------------
g-----------------------------------------------------------------------------
c--2-2-----5--7/-8-\7-p5--7p5--2-2-----5--------5--2-2-----5--7/-8-\7-p5--7p5-
f--2-2-----5--7/-8-\7-p5--7p5--2-2-----5-----5--5--2-2-----5--7/-8-\7-p5--7p5-
a--0-0--0----------------------0-0--0--------5--3--0-0--0---------------------
d-----------------------------------------3--3--------------------------------

d--------------
g--------------
c--2-2--2-2--2-
f--2-2--2-2--2-
a--0-0--0-0--0-
d--------------

intro again
     PM     PM     PM    PM     PM    PM
d--------------------------------------------
g--------------------------------------------
c--2-----5-------7----5-------2-----5------0-
f--2-----5-------7----5-------2-----5------0-
a--0--0-----0-0-----0---0--0--0--0----0--0---
d--------------------------------------------

      PM   PM     PM     PM    PM    PM       ah
d-----------------------------------------------------
g-----------------------------------------------------
c--2-----5------7----5-------2-----5------0--7b-(7)-5-
f--2-----5------7----5-------2-----5------0-----------
a--0--0-----0-0----0---0--0--0--0----0--0-------------
d-----------------------------------------------------

      PM     PM     PM     PM       PM    PM 
d-------------------------------------------------
g-------------------------------------------------
c--2-----5--------7-----5--------2-----5--------0-
f--2-----5--------7-----5--------2-----5--------0-
a--0--0-----0--0-----0-----0--0--0--0-----0--0----
d-------------------------------------------------

d-------------------------------------------
g-------------------------------------------
c-------------------------------------------
f--7~~~~-------------------------(7)--------
a--------------------------------------0-\/-
d-------------------------------------------


verse
          PM      PM          PM        PM         PM        PM         PM 
d------------------------------------------------------------------------------
g------------------------------------------------------------------------------
c----2-------5--------7-----------5--------2-----------5--------4--------------
f----2-------5--------7-----------5--------2-----------5--------5---------5--6-
a-0----0--0-----0--0-----0-0-0-0-----0--0-----0-0-0-0-----0--0-----0-0-0--5--6-
d-------------------------------------------------------------------------3--4-

          PM      PM          PM        PM         PM        PM         PM 
d------------------------------------------------------------------------------
g------------------------------------------------------------------------------
c----2-------5--------7-----------5--------2-----------5--------4--------------
f----2-------5--------7-----------5--------2-----------5--------5---------5--6-
a-0----0--0-----0--0-----0-0-0-0-----0--0-----0-0-0-0-----0--0-----0-0-0--5--6-
d-------------------------------------------------------------------------3--4-

          PM      PM          PM        PM         PM        PM         PM 
d------------------------------------------------------------------------------
g------------------------------------------------------------------------------
c----2-------5--------7-----------5--------2-----------5--------4--------------
f----2-------5--------7-----------5--------2-----------5--------5---------5--6-
a-0----0--0-----0--0-----0-0-0-0-----0--0-----0-0-0-0-----0--0-----0-0-0--5--6-
d-------------------------------------------------------------------------3--4-

          PM      PM          PM        PM         PM        PM         PM 
d------------------------------------------------------------------------------
g------------------------------------------------------------------------------
c----2-------5--------7-----------5--------2-----------5--------4--------------
f----2-------5--------7-----------5--------2-----------5--------5---------5--6-
a-0----0--0-----0--0-----0-0-0-0-----0--0-----0-0-0-0-----0--0-----0-0-0--5--6-
d-------------------------------------------------------------------------3--4-

pre chorus
d-----------------------------------------------------------
g-----------------------------------------------------------
c----------------5~~---------------------------5~~----------
f--7~~----3~~-----------5---5-5----7~~----3~~---------------
a-----------------------5---5-5-----------------------------
d---------------------3-3-3-3-3-----------------------/17-\-

gtr 2
d---------------------------------------------------------
g----------------5~~----3~~------------------3~~----------
c--5~~----2~~------------------5~~----2~~-----------------
f---------------------------------------------------------
a---------------------------------------------------/17-\-
d---------------------------------------------------------

solo
d-------17-19-20--19-20p17----17-----17---------------------------------------
g--20b---------------------20----20b----20p17------------------15-------------
c----------------------------------------------19b~---14-16-17----17-16-17p16-
f-----------------------------------------------------------------------------
a-----------------------------------------------------------------------------
d-----------------------------------------------------------------------------

d-------------------20-19-20-22-20-22-22b-\/-
g--------------------------------------------
c--17-16h17p16-14~---------------------------
f--------------------------------------------
a--------------------------------------------
d--------------------------------------------

outro chorus
d------------------------------------------------------------------------------
g------------------------------------------------------------------------------
c-2-2-----5--7/-8-\7-p5--7p5----2-2-----5--------5--2-2-----5--7/-8-\7-p5--7p5-
f-2-2-----5--7/-8-\7-p5--7p5----2-2-----5-----5--5--2-2-----5--7/-8-\7-p5--7p5-
a-0-0--0------------------------0-0--0--------5--3--0-0--0---------------------
d------------------------------------------3--3--------------------------------

d-------------------------------------------------------------------------
g-------------------------------------------------------------------------
c--2-2-----5--------5----2-2-----5--7/-8-\7-p5--7p5----2-2-----5--------5-
f--2-2-----5-----5--5----2-2-----5--7/-8-\7-p5--7p5----2-2-----5-----5--5-
a--0-0--0--------5--3----0-0--0------------------------0-0--0--------5--3-
d-------------3--3------------------------------------------------3--3----

gtr 2
d---------------------------------
g---------------------------------
c------------------7b-(7)-5-------
f----------------------------7~~--
a---------------------------------
d---------------------------------

d----------------------------------------------------------------
g----------------------------------------------------------------
c--2-2-----5--7/-8-7\-p5--7p5--2-2--2-2--2--7/-8-7\-p5--7p5--2-2-
f--2-2-----5--7/-8-7\-p5--7p5--2-2--2-2--2--7/-8-7\-p5--7p5--2-2-
a--0-0--0----------------------0-0--0-0--0-------------------0-0-
d----------------------------------------------------------------


Keep Your Eye on the Money

intro
d-----------------------------------------------------|
a-----------------------------------------------------|
f--5-----2~----5--7~----2-2-2--5--7---5--2---5--7--5~-|
c--5--5--2~----5--7~----2-2-2--5--7---5--2---5--7--5~-|
g--3--3--0~----3--5~----0-0-0--3--5---3--0---3--5--3~-|
d-----3-----------------------------------------------|

verse
d-----------------------------------------------------------------|
a-----------------------------------------------------------------|
f--2-2-2--5--7---5--2---5--7--5~----2-2-2--5--7---5--2---5--7--5~-|
c--2-2-2--5--7---5--2---5--7--5~----2-2-2--5--7---5--2---5--7--5~-|
g--0-0-0--3--5---3--0---3--5--3~----0-0-0--3--5---3--0---3--5--3~-|
d-----------------------------------------------------------------|

        PM             PM             PM             PM
d-------------------------------------------------------------|
a-------------------------------------------------------------|
f--2-----------5--7-----------5--2-----------5--7-----------5-|
c--2-----------5--7-----------5--2-----------5--7-----------5-|
g--0--0-0-0-0--3--5--0-0-0-0--3--0--0-0-0-0--3--5--0-0-0-0--3-|
d-------------------------------------------------------------|

        PM             PM             PM             PM
d-------------------------------------------------------------|
a-------------------------------------------------------------|
f--2-----------5--7-----------5--2-----------5--7-----------5-|
c--2-----------5--7-----------5--2-----------5--7-----------5-|
g--0--0-0-0-0--3--5--0-0-0-0--3--0--0-0-0-0--3--5--0-0-0-0--3-|
d-------------------------------------------------------------|

pre chorus- dont know yet

chorus
d----------------------------------------------------------------------------------|
a----------------------------------------------------------------------------------|
f---------------7--7-7-7-5-----------------7--5-----------------7--7-7-7-5----7--5-|
c--2--5-2-5-2---7--7-7-7-5----2--5-2-5-2---7--5----2--5-2-5-2---7--7-7-7-5----7--5-|
g--0--3-0-3-0---5--5-5-5-3----0--3-0-3-0---5--3----0--3-0-3-0---5--5-5-5-3----5--3-|
d----------------------------------------------------------------------------------|

intro again
d-----------------------------------------------------------------|
a-----------------------------------------------------------------|
f--2-2-2--5--7---5--2---5--7--5~----2-2-2--5--7---5--2---5--7--5~-|
c--2-2-2--5--7---5--2---5--7--5~----2-2-2--5--7---5--2---5--7--5~-|
g--0-0-0--3--5---3--0---3--5--3~----0-0-0--3--5---3--0---3--5--3~-|
d-----------------------------------------------------------------|

verse
d-----------------------------------------------------------------|
a-----------------------------------------------------------------|
f--2-2-2--5--7---5--2---5--7--5~----2-2-2--5--7---5--2---5--7--5~-|
c--2-2-2--5--7---5--2---5--7--5~----2-2-2--5--7---5--2---5--7--5~-|
g--0-0-0--3--5---3--0---3--5--3~----0-0-0--3--5---3--0---3--5--3~-|
d-----------------------------------------------------------------|

        PM             PM             PM             PM
d-------------------------------------------------------------|
a-------------------------------------------------------------|
f--2-----------5--7-----------5--2-----------5--7-----------5-|
c--2-----------5--7-----------5--2-----------5--7-----------5-|
g--0--0-0-0-0--3--5--0-0-0-0--3--0--0-0-0-0--3--5--0-0-0-0--3-|
d-------------------------------------------------------------|

        PM             PM             PM             PM
d-------------------------------------------------------------|
a-------------------------------------------------------------|
f--2-----------5--7-----------5--2-----------5--7-----------5-|
c--2-----------5--7-----------5--2-----------5--7-----------5-|
g--0--0-0-0-0--3--5--0-0-0-0--3--0--0-0-0-0--3--5--0-0-0-0--3-|
d-------------------------------------------------------------|

pre chorus- dont know yet

chorus
d-------------------------------------------------------------------------------------------|
a-------------------------------------------------------------------------------------------|
f---------------7--7-7-7-5-----------------7--5-----------------7--7-7-7-5----7--5--2~---2~-|
c--2--5-2-5-2---7--7-7-7-5----2--5-2-5-2---7--5----2--5-2-5-2---7--7-7-7-5----7--5--2~---2~-|
g--0--3-0-3-0---5--5-5-5-3----0--3-0-3-0---5--3----0--3-0-3-0---5--5-5-5-3----5--3--0~---0~-|
d-------------------------------------------------------------------------------------------|

x4, PM the 7\'s
d----------------------------------------------------------------------------------|
a----------------------------------------------------------------------------------|
f----------------------------------------------------------------------------------|
c--7-7-5-7-7-7-5-7-7-7-5-7-7-7-5-7-7-7-5~--7-7-5-7-7-7-5-7-7-7-5-7-7-7-5-7-7-7-10~-|
g----------------------------------------------------------------------------------|
d----------------------------------------------------------------------------------|

broken down chorus
x4, PM the 7\'s
d-------------------------------------------------------------------------------|
a-------------------------------------------------------------------------------|
f-------------------------------------------------------------------------------|
c--7-7-5-7-7-7-5-7-7-7-5-7-7-7-5-7-7-7-5--7-7-5-7-7-7-5-7-7-7-5-7-7-7-5-7-7-7-5-|
g-------------------------------------------------------------------------------|
d-------------------------------------------------------------------------------|

solo- not yet

chorus out
d----------------------------------------------------------------------------------|
a----------------------------------------------------------------------------------|
f---------------7--7-7-7-5-----------------7--5-----------------7--7-7-7-5----7--5-|
c--2--5-2-5-2---7--7-7-7-5----2--5-2-5-2---7--5----2--5-2-5-2---7--7-7-7-5----7--5-|
g--0--3-0-3-0---5--5-5-5-3----0--3-0-3-0---5--3----0--3-0-3-0---5--5-5-5-3----5--3-|
d----------------------------------------------------------------------------------|

Home Sweet Home

 C                        Em/B                  C7/Bb
-|--------------------------|---------------------|-------------------------|-
-|-8-----8-------8----------|-8----8-----8--------|-8----8-----8------------|-
-|-9-----9---------9----9---|-9----9-------9---9--|-9----9-------9---9------|-
-|10--10---10-10-----10---10|-9--9---9-9-----9---9|-8--8---8-8-----8---8----|-
-|--------------------------|---------------------|-------------------------|-
-|-8------------------------|-7-------------------|-6-----------------------|-


 F/C                         Rhythm Fig. 1
-|--------------------------|--------------------------|--------------------|-
-|-10-----10-----10---------|-8-----8-------8----------|8---8------8--------|-
-|-10-----10-----10---------|-9-----9---------9----9---|9---9--------9---9--|-
-|-10--10----10--10---------|10--10---10-10-----10---10|9-9----9-9-----9---9|-
-|--------------------------|--------------------------|--------------------|-
-|--8-----------------------|-8------------------------|7-------------------|-
      1st Verse         You    know im a dreamer      But my  hearts of gold


                                        end rhythm fig 1.   C DISTORTION
-|--------------------------|-----------------------------|-----------------|-
-|--8-----8--------8--------|10-----10-------10-----------|-10---------10\--|-
-|--9-----9----------9---9--|10-----10---------10----10---|-10---------10\--|-
-|--8--8-----8--8------8---8|10--10----10-10------10----10|-10---------10\--|-
-|--------------------------|-----------------------------|-----------------|-
-|--6-----------------------|-8---------------------------|--8----------8\--|-
I had a run away hide    So  i wouldnt come home   no,___|     Im on my
                  (repeat rhythm fig 1 with rest of verse)

-|--------------------------|-----------------------------|-----------------|-
-|--------------------------|-----------------------------|-----------------|-
-|--------------------------|-----------------------------|-5-------\-------|-
-|-6--66--------------------|-8--88-----------------------|-5-------\-------|-
-|-6--66----------3---------|-8--88----------5------------|-3-------\-------|-
-|-4--44--4---6-------6---4-|-6--66--6---8-------8----6---|-----------------|-
   Way         Im  on   my    way     home    sweet   home  Tonight Tonight 

-|--------------------------|-----------------------------|-----------------|-
-|--------------------------|-----------------------------|-----------------|-
-|-5-----5-----5-----5-----5|/7-----7-----7-----7-----7---|-5---------------|-
-|--------------------------|-----------------------------|-----------------|-
-|-3-----3-----3-----3-----3|/5-----5-----5-----5-----5---|-3---------------|-
-|--------------------------|-----------------------------|-----------------|-
  Im on my way       Im on my  way      home   sweet   home         You know


 Rhythm Fig. 2
  C                                  B
-|----------------------------------|---------------------------------------|-
-|---------6p5--------------6p5-----|---------5---------------5-------------|-
-|----5--------5-------5---------5--|----4-------4-------4----------4-------|-
-|------5--------5-------5---------5|------5-------5-------5----------------|-
-|-3---------------3----------------|-2---------------2---------------------|-
-|----------------------------------|---------------------------------------|-
   ive seen__          To many    romantic dreams             up   in

  Bb                                 F                     End Rhythm fig 2.
-|------------0----------------0----|-------1-1-------1-1-------1-1---------|-
-|----------------------------------|-----1---------1---------1-------1-----|-
-|------3--------3--------3-------3-|-3----------3---------3----------------|-
-|---5-----5-------5----5---5-------|---------------------------------------|-
-|----------------------------------|---------------------------------------|-
-|-6------------------6-------------|---------------------------------------|-
   light   falling      on   the  silver screen        My hearts like.....
                                                     (repeat ryth fig 2)

  F                   Solo:
                      C
-|-1-----------------|------8-----------------------------------------------|-
-|-1-----------------|-11b-----11--10--8------------------------------------|-
-|-2-----------------|-------------------11--10--8--------------------------|-
-|-3-----------------|-----------------------------10--8--------------------|-
-|-3-----------------|------------------------------------10--8--6--6-------|-
-|-1-----------------|------------------------------------------------------|-
                                                                         
   Bb					       Ab
-|-------------------------------------------|------------------------------|-
-|-------------------------------------------|------------------------------|-
-|---------------------------------------8---|------8----------8-----8--8---|-
-|-----------------------------------------10|--------10---------10---------|-
-|-6\5--5--5--5/6--6--6--6/8--8--8--8h10-----|-8h10-------8h10--------------|-
-|-------------------------------------------|------------------------------|-
                                                                         
  Bb						C		Bb
-|--------------------------------------------------------------------------|-
-|--------------------------------------------------------------------------|-
-|-8\7--7--7--7\5--5--5--5\3--3--5--5b*------br-----b*-----------br--5p3-5*-|-
-|--------------------------------------------------------------------------|-
-|--------------------------------------------------------------------------|-
-|--------------------------------------------------------------------------|-

         Ab					    Bb
-|--------------------------------------------------------------------------|-
-|--------------------------------------------------------------------------|-
-|---------------------------------------------8----------8---------8-------|-
-|-6--6------------------------------------------10---------10--------10----|-
-|------6\5--5--5--5/6--6--6--6/8--8--8--8/10--------8-10------8-10---------|-
-|--------------------------------------------------------------------------|-
                                                                         
  C									Bb
-|10-11-13-10-11-13-10-11-13-10-11-13-10-11-13-10-11-13-10-11-13b-------13b-|-
-|--------------------------------------------------------------------------|-
-|--------------------------------------------------------------------------|-
-|--------------------------------------------------------------------------|-
-|--------------------------------------------------------------------------|-
-|--------------------------------------------------------------------------|-
                                                                         
                         Ab				Bb
-|-10h11-13-10-----------------------------------------|--------------------|-
-|-------------13-10-----------------------------------|--------------------|-
-|-------------------12-1310b----10br----10brp8--------|--------------------|-
-|----------------------------------------------10\----|--------------------|-
-|-----------------------------------------------------|--------------------|-
-|--------------------------------------------------6b-|-r----6--6---6/8----|-
                                                                         
  C							Bb
-|-----------------------------------------------------|--------------------|-
-|-----------------------------------------------------|--------------------|-
-|------------8----------------8--------8-------8----8-|8\7--7--7--7/8--8--8|-
-|-------8----8--10------------8-------10--10----------|--------------------|-
-|-10-10---10--------8/10--10-----10------------6----6-|6\5--5--5--5/6--6--6|-
-|-----------------------------------------------------|--------------------|-
                                                                         
	      Ab				   Bb
-|--------------------------------------------------------------------------|-
-|--------------------------------------------------------------------------|-
-|8/10-10-10--------8---------------8--------8--8--8\7--7--7--7\5--5--5--7--|-
-|---------------------10v-------------10-----------------------------------|-
-|6/8--8--8--8--10-----------8--10------------------------------------------|-
-|--------------------------------------------------------------------------|-
                                                                         
               Ab
-|--------------|-------------------------------------------------------------
-|--------------|-------------------------------------------------------------
-|-5--3h5--3----|-------------------------------------------------------------
-|------------6-|-------------------------------------------------------------
-|--------------|-------------------------------------------------------------
-|------------4-|-------------------------------------------------------------
                                                                         
Tonight We Need A Lover

 E     B/D#  C#m  emaj7/b  A  Asus2
e--4----2-2----0----4-4-----0---0-|
b--0----0-0----5----4-4-----2---0-|
g--4----4-4----6----4-4-----2---2-|
d--2----1-1----6----2-2-----2---2-|
a--------------4----2-2-----0---0-|
e---------------------------------|

verse

"when you smiled at me and i saw your eyes"

  E       B/D#    C#m        B     A
e--4------2-------0----------------0--------|
b----0-----0--------5--------4-------2------|
g-----4------4--------6-------4--------2----|
d------2-------1--------6------4---------2--|
a-------------------------4-----2---------0-|
e-------------------------------------------|

"all i ever wanted to be, was in your arms tonight"

   G#    F#      A   A/B    E  A  E
e----------------0----------4--0--4-|
b----------------2----------0--2--0-|
g----------------2----------4--2--4-|
d----------------2----------2--2--2-|
a----------------0-------------0----|
e-----------------------------------|

"you looked to young to know about romance"

  G#            C#m      B   A    B    E  A  E
e----------------0-----------0---------4--0--4-|
b----------------5-------4---2----4----0--2--0-|
g----------------6-------4---2----4----4--2--4-|
d----------------6-------4---2----4----2--2--2-|
a----------------4-------2---0----2-------0----|
e----------------------------------------------|

"but you smiled i had to take a chance"
 G#      C#m     F#/A#     B   G#/B# C#m  E7/D
e---------0---------------------------0-------|
b---------5----------------4----------5-------|
g---------6----------------4----------6-------|
d---------6----------------4----------6-------|
a---------4----------------2----------4-------|
e---------------------------------------------|

chorus
"tonight,ill be with you tonight

   A      B      E  A  E
e--0-------------4--0--4-|
b--2------4------0--2--0-|
g--2------4------4--2--4-|
d--2------4------2--2--2-|
a--0------2---------0----|
e------------------------|

"tonight,ill love you through the night"

   A     B         E   A
e--0---------------4---0-|
b--2-----4---------0---2-|
g--2-----4---------4---2-|
d--2-----4---------2---2-|
a--0-----2-------------0-|
e------------------------|

Use It Or Lose It
|-----------------------------------------------------------------------------|
|-----------------------------------------------------------------------------|
|-----------------------------------------------------------------------------|
|-------2--5-4h5p4--2--4-5p4-0---2-5-4h5p4-2-5p4h5-7--------------------------|
|--7/0-2----------------2----------------2------------------------------------|
|--7/0-0----------------0----------------0------------------------------------|

0:17
|-----------------------------------------------------------------------------|
|-----------------------------------------------------------------------------|
|-----------------------------------------------------------------------------|
|--2--2--2------------2--2--2---------2--4-5p4-0--2---------------------------|
|--2--2--2------------2--2--2---------2---------------2-----------------------|
|---0--0--0-----------0--0--0---------0---------------0-----------------------|

Ragtime fast lane another overdose...

0:26
|--------------------------------------------------------------------------|
|--------------------------------------------------------------------------|
|--------------------------------------------------------------------------|
|-7p5--------------7-7p5----------------7-7p5------------------7-7p5-10-9--|
|-7p5--------------7-7p5----------------7-7p5------------------7-7p5-10-9--|
|-------0-0-0-0-0----------0-0-0-0-0-0---------0-0-0-0-0-0------ --0-------|
Use it or lose it
Sweet pain is the name of the game....

0:30
|-----------------------------------------------------------------------------|
|-----------------------------------------------------------------------------|
|-----------------------------------------------------------------------------|
|--9-9-9-9-9---7-7-7-7-7-7--5-5--4-4------------------------------------------|
|--9-9-9-9-9---7-7-7-7-7-7--5-5--4-4------------------------------------------|
|--5-5-5-5-5---5-5-5-5-5-5--3-3--3-3------------------------------------------|I
0:36
|-----------------------------------------------------------------------------|
|-----------------------------------------------------------------------------|
|-----------------------------------------------------------------------------|
|---2--5-4h5p4--2--4-5p4-0---2-5-4h5p4-2-5p4h5-7------------------------------|
|---2----------------2----------------2---------------------------------------|
|---0----------------0----------------0---------------------------------------|
0:44
|-----------------------------------------------------------------------------|
|-----------------------------------------------------------------------------|
|--2-5-4h5p4--2--4-5p4-0---2-5-4h5p4-2-5p4h5-7--------------------------------|
|--2---------------2---------------2------------------------------------------|
|--0---------------0---------------0------------------------------------------|
|-----------------------------------------------------------------------------|
Solo (sorry, don't have a whammy bar, so the first bit isn't tabbed)
 1:36
|----------------------------------------------------------------------------------|
|-12--15--17-17-17-17-17--18 20--17-17-17-17-17--18 20-----------------------------|
|----------------------------------------------------------------------------------|
|----------------------------------------------------------------------------------|
|----------------------------------------------------------------------------------|
|----------------------------------------------------------------------------------|


|-----------------------------------------------------------------------------|
|----17h18h20---17h18h20----17h18h20---17h18h20-------------------------------|
|-----------------------------------------------------------------------------|
|-----------------------------------------------------------------------------|
|-----------------------------------------------------------------------------|
|-----------------------------------------------------------------------------|

|-----------------------------------------------------------------------------|
|--12-12-12-12-12 13---15----12-12-12-12-12-13---15---------------------------|
|-----------------------------------------------------------------------------|
|-----------------------------------------------------------------------------|
|-----------------------------------------------------------------------------|
|-----------------------------------------------------------------------------|

|-----------------------------------------------------------------------------|
|---13--12--10--12--10-----10-------------------------------------------------|
|-----------------------------12-----12--11--12--11--9------------------------|
|-----------------------------------------------------------------------------|
|-----------------------------------------------------------------------------|
|-----------------------------------------------------------------------------|

|----------------------------------------------------------------------------------|
|---17-17-17-17-17--18 20--17-17-17-17-17--18 20-----------------------------------|
|----------------------------------------------------------------------------------|
|----------------------------------------------------------------------------------|
|----------------------------------------------------------------------------------|
|----------------------------------------------------------------------------------|

|------------------------------15h17h18--17h18h20---17h18h20--18h20h22--|
|-17h18h20--18h20h22----------------------------------------------------|
|-----------------------------------------------------------------------|
|-----------------------------------------------------------------------|
|-----------------------------------------------------------------------|
|-----------------------------------------------------------------------|


|-----------------------------------------------------------------------------|
|--12-12-12-12-12-13---15----12-12-12-12-12-13---15---------------------------|
|-----------------------------------------------------------------------------|
|-----------------------------------------------------------------------------|
|-----------------------------------------------------------------------------|
|-----------------------------------------------------------------------------|

|-----------------------------------------------------------------------------|
|--12-13-10-12----10----------------------------------------------------------|
|-------------------12----11-12-9-11--5-7-4-4-4-4-4-4-4-4-4-------------------|
|-----------------------------------------------------------------------------|
|-----------------------------------------------------------------------------|
|-----------------------------------------------------------------------------|

2:20
|-----------------------------------------------------------------------------|
|-----------------------------------------------------------------------------|
|--4h5-------4h5-------4h5----------------------------------------------------|
|-----------------------------------------------------------------------------|
|-----------------------------------------------------------------------------|
|-----------------------------------------------------------------------------|
lead bit over the main riff at the end

2:31
|-----------------------------------------------------------------------------|
|-----------------------------------------------------------------------------|
|-----------------------------------------------------------------------------|
|--2--4-5p4--0--2-------------------------------------------------------------|
|--2----------------2---------------------------------------------------------|
|--0----------------0---------------------------------------------------------|

Save Our Souls

intro- x2
----------------------------------------------
---------------------------3--3---------------
--2--2---------------------2--2---------------
--2--2--2-0----------------0--0---------------
--0--0-------3-2--3-2------------3-2---3--2---
----------------------3--------------3------3-

gtr 2- with slide
------------------------------------------------------
--------------------------/17-------------------------
--9-/-14~~~-----(14)-----------/17----/14~~----(14)-\-
------------------------------------------------------
------------------------------------------------------
------------------------------------------------------

verse- x2
-------------------------------------------------
-------------------------------------------------
--2----5----7-------7--5----2----5--7-------7--5-
--2----5----7-------7--5----2----5--7-------7--5-
--0----3----5----0--5--3----0----3--5----0--5--3-
-------------------------------------------------

chorus
-------------------------------------------------------------------
-------------------------------------------------------------------
--------------------------------------------------------5--5-------
-----------------------------7-5---5-7/10-----7-5-0-7\--5--5--5--5-
--3----3--5/7--5----5--3--0--7-5-0-5-7/10--0--7-5-0-7\--3--3--5--5-
--------------------------------------------------------------3--3-

----------------------------------------------------------------------
----------------------------------------------------------------------
----------------------------------------------------------------------
-----7-5---5-7/10----7-5---7-----------------------------7-5---5-7/10-
--0--7-5-0-5-7/10--0-7-5-0-7----3----3-5/7--5----5--3--0-7-5-0-5-7/10-
----------------------------------------------------------------------

----------------------------
----------------------------
--------------------------2-
----7-5-0-7\----3----5----2-
--0-7-5-0-7\----3----5----0-
----------------1----3------

chorus ending- x2
----------------------------------------------
---------------------------3--3---------------
--2--2---------------------2--2---------------
--2--2--2-0----------------0--0---------------
--0--0-------3-2--3-2------------3-2---3--2---
----------------------3--------------3------3-

gtr 2- with slide
---------------------
---------------------
--9-/-14~~~-----(14)-
---------------------
---------------------
---------------------

verse- x2
-------------------------------------------------
-------------------------------------------------
--2----5----7-------7--5----2----5--7-------7--5-
--2----5----7-------7--5----2----5--7-------7--5-
--0----3----5----0--5--3----0----3--5----0--5--3-
-------------------------------------------------

chorus
-------------------------------------------------------------------
-------------------------------------------------------------------
--------------------------------------------------------5--5-------
-----------------------------7-5---5-7/10-----7-5-0-7\--5--5--5--5-
--3----3--5/7--5----5--3--0--7-5-0-5-7/10--0--7-5-0-7\--3--3--5--5-
--------------------------------------------------------------3--3-

----------------------------------------------------------------------
----------------------------------------------------------------------
----------------------------------------------------------------------
-----7-5---5-7/10----7-5---7-----------------------------7-5---5-7/10-
--0--7-5-0-5-7/10--0-7-5-0-7----3----3-5/7--5----5--3--0-7-5-0-5-7/10-
----------------------------------------------------------------------

----------------------------
----------------------------
--------------------------2-
----7-5-0-7\----3----5----2-
--0-7-5-0-7\----3----5----0-
----------------1----3------

solo
-------17--17\15----/20-17-17\15---------------------------------
--10/-(x)--------17--------------17------------------------------
------------------------------------17~-(17)--14\12---12~--(12)\-
----------------------------------------------------14-----------
-----------------------------------------------------------------
-----------------------------------------------------------------

--22\21----22\21----22\21----22\21--------------------20-----------------
--------22-------22-------22-------22\20--(20)--20/22----22-(22)-\5-/-17-
-------------------------------------------------------------------------
-------------------------------------------------------------------------
-------------------------------------------------------------------------
-------------------------------------------------------------------------

--17----17--17\15----/20-17-17\15---------------------------------------
-----17-----------17--------------17------------------------------------
-------------------------------------17~~--(17)--14\12----12-~~--(12)-\-
-------------------------------------------------------14---------------
------------------------------------------------------------------------
------------------------------------------------------------------------

tremolo pick while sliding
------------------17--17\15----/20--(20)-\-
------------10-/-(x)--------17-------------
--5--/--10---------------------------------
-------------------------------------------
-------------------------------------------
-------------------------------------------

-----------------------------------------
-----------------------------------------
--14\12---12--14-(14)\--14\12---14-(14)\-
--------14-------------------14----------
-----------------------------------------
-----------------------------------------

------------------------------------------------------
------------------------------------------------------
------------------------------------------------------
------------------------------7-5---5-7/10----7-5-0-7-
--3----3--5/7--5----5--3----0-7-5-0-5-7/10--0-7-5-0-7-
------------------------------------------------------

----------------------------------------------
--/17----------------------/17----------------
------/17--14--14-(14)\12------/17--14-(14)-\-
----------------------------------------------
----------------------------------------------
----------------------------------------------

----------------------------------------------------
----------------------------------------------------
--5----5--------------------------------------------
--5----5--5----5----7-5------5-7/10------7-5----0-7-
--3----3--5----5--0-7-5----0-5-7/10----0-7-5----0-7-
----------3----3------------------------------------

gtr 2- under the above portion
---------------------------------------------------
--15\14----15\14-----------15\14----15\14----------
--------14-------14-(14)\--------14-------14-(14)\-
---------------------------------------------------
---------------------------------------------------
---------------------------------------------------

------------------------------------------------------------------
------------------------------------------------------------------
------------------------------------------------------------------
------------------------------7-5---5-7/10------7-5-0-7----3----5-
--3----3--5/7--5----5--3----0-7-5-0-5-7/10----0-7-5-0-7----3----5-
-----------------------------------------------------------1----3-

verse- x2
-------------------------------------------------
-------------------------------------------------
--2----5----7-------7--5----2----5--7-------7--5-
--2----5----7-------7--5----2----5--7-------7--5-
--0----3----5----0--5--3----0----3--5----0--5--3-
-------------------------------------------------

outro chorus
--------------------------------------------------------------------
--------------------------------------------------------------------
---------------------------------------------------------5--5-------
------------------------------7-5---5-7/10------7-5-0-7--5--5--5--5-
--3----3--5/7--5----5--3----0-7-5-0-5-7/10----0-7-5-0-7--3--3--5--5-
---------------------------------------------------------------3--3-

gtr 2
------------------------------------------
------------------------------------------
--14\12---12--14-(14)\--14\12----14-(14)\-
--------14--------------------14----------
------------------------------------------
------------------------------------------

------------------------------
------------------------------
------------------------------
----7-5---5-7/10------7-5-0-7-
--0-7-5-0-5-7/10----0-7-5-0-7-
------------------------------

gtr 2
------------------------------------------------------
--15\14----15-\-14-----------15\14----15\14-----------
--------14---------14-(14)\--------14-------14-(14)-\-
------------------------------------------------------
------------------------------------------------------
------------------------------------------------------

------------------------------------------------------------
------------------------------------------------------------
------------------------------------------------------------
------------------------------7-5------5-7/10------7-5--0-7-
--3----3--5/7--5----5--3----0-7-5----0-5-7/10----0-7-5--0-7-
------------------------------------------------------------

gtr 2
-----------------------------------------------
--/17-----------------------/17----------------
------/17--14--14-(14)-\-12-----/17--14-(14)-\-
-----------------------------------------------
-----------------------------------------------
-----------------------------------------------

--------------------------------------------------------
--------------------------------------------------------
------------2--------------2--------------2----(2)----2-
--3----5----2----3----5----2----3----5----2----(2)----2-
--3----5----0----3----5----0----3----5----0----(0)----0-
--1----3---------1----3---------1----3------------------

Raise Your Hands To Rock

Fig.1
D-|------2-------------------|-----3----------------------|
A-|-3----3------3--3-----3---|-----3----------------------|
F-|-2----2------2--2-----2---|-----0-------0------0-------|
C-|-0----0------0--0-----0---|-----0-----0------0---------|
G-|---------3---------3------|-----2---3------2-----------|
D-|--------------------------|-3---3-----------------3----|

  Fig.1.5      Fig.2
D-|-----------|------------------------------ |---------------------------|
A-|-----------|------------------------------ |---------------------------|
F-|-2----2----|-------------7-------------7-- |---------------------------|
C-|-2----2----|--5/7--x--x--7--5/7--x--x--7--|-----------5------------ 3--|
G-|-0----0----|--3/5--x--x--5--3/5--x--x--5--|-3/5--x-x--5--3/5--x-x-- 3--|
D-|-----------|------------------------------|-1/3--x-x--3--1/3--x-x-- 1--|

   Fig.2.5
D-|----------|------------|
A-|----------|------------|
F-|-2--------|--2---------|
C-|-2--------|--2---------|
G-|-0--------|--0---------|
D-|----------|------------|

    Solo:  1
D-|-----------|------------------------------------------------|
A-|------15b--|---15-14-----15-14------------------------------|
F-|------s.h.-|---------16--------16-14-13-12------------------|
C-|-----------|-------------------------------14-13-12---------|
G-|-----------|------------------------------------------------|
D-|-----------|------------------------------------------------|

       1     1
D-|--------------------|------------------------------------------|
A-|--15b---15b~~~~15--|-------------------------------------------|
F-|--------------------|------------------------------------------|
C-|--------------------|-------------------/14----14---17-14-17---|
G-|--------------------|-----------------------14-----------------|
D-|--------------------|--15-14-15-17-15-17-----------------------|

             1                        1          1
D-|----------------------------|-------------------|
A-|----------------------------|-------------------|
F-|--------14b---r^12----<12>--|----14b--r^12--14b-|
C-|-14~~~~------------14-------|-14----------------|
G-|----------------------------|-------------------|
D-|----------------------------|-------------------|


D-|-14-15-16-15--14-15-14-12----12--14-15-14-12--------------|
A-|--------------------------14-----------------14-14b-------|
F-|----------------------------------------------------------|
C-|----------------------------------------------------------|
G-|----------------------------------------------------------|
D-|----------------------------------------------------------|

                           1
D-|---------------------------|------------------------------|
A-|-17-15-14------------------|------------------------------|
F-|----------16-15-14----14b--|---------7------7--9--7-------|
C-|-------------------14------|-7^9--9--7--7^9-7--9--7-------|
G-|---------------------------|-7^9--9-----7^9---------------|
D-|---------------------------|------------------------------|

             1             1
D-|--------17------------------|-----------------------------|
A-|--------20ub----------10----|-----------------------------|
F-|-2--2----------2--2---12ub--|---------7------7--9--7------|
C-|-2--2----------2--2---------|-7^9--9--7--7^9-7--9--7------|
G-|-0--0----------0--0---------|-7^9--9-----7^9--------------|
D-|----------------------------|-----------------------------|

     ½        ½                        1
D-|--------------------------------|------------|
A-|--------------------------------|-14b--------|
F-|-<8b>-8-7-----------------------|------------|
C-|----------<8b>-8-7-6------------|------------|
G-|---------------------10-9-8-7-6-|------------|
D-|--------------------------------|------------|

Fight For Your Rights

 Slide
D---------------------|-----------------------------|-------------------|
A---------------------|-----------------------------|-------------------|
F---------------------|--2--------4--/--5--------0--|--2--------4--/----|
C---------------------|--2--------4--/--5--------0--|--2--------4--/----|
G---------------------|-----0--0-----------0--0-----|-----0--0----------|
D---------------------|-----------------------------|-------------------|

D---------------|-----------------------------|-------------------------|
A---------------|-----------------------------|-------------------------|
F---5--------0--|--2--------4--/--5--------0--|--2--------/5--7h8p7-----|
C---5--------0--|--2--------4--/--5--------0--|--2--------45--7-8-7-----|
G------0--0-----|-----0--0-----------0--0-----|-----0--0----------------|
D---------------|-----------------------------|-------------------------|

D------|------------------------|-----------------------------|---------|
A------|------------------------|-----------------------------|---------|
F---5--|--2--------/5--------0--|--2--------4--/--5--------0--|--2------|
C---5--|--2--------45--------0--|--2--------4--/--5--------0--|--2------|
G------|-----0--0------0--0-----|-----0--0-----------0--0-----|---------|
D------|------------------------|-----------------------------|---------|


                                                       Verse
D---------------------------|-----------------------|-------------------|
A---------------------------|-----------------------|-------------------|
F---------4--/--5--------0--|--2-----------5--6--7--|--2--------4--/----|
C---------4--/--5--------0--|--2-----------5--6--7--|--2--------4--/----|
G---0--0-----------0--0-----|-----0--0--0-----------|-----0--0----------|
D---------------------------|-----------------------|-------------------|

D---------------|------------------------|------------------------|-----|
A---------------|------------------------|------------------------|-----|
F---5--------0--|--2--------/5--------0--|--2--------/5--------0--|-----|
C---5--------0--|--2--------45--------0--|--2--------45--------0--|-----|
G------0--0-----|-----0--0------0--0-----|-----0--0------0--0-----|-----|
D---------------|------------------------|------------------------|-----|

D------------------------|------------------------|---------------------|
A------------------------|------------------------|---------------------|
F---2-----------5--6--7--|--2--------/5--------0--|--2--------/5--------|
C---2-----------5--6--7--|--2--------45--------0--|--2--------45--------|
G------0--0--0-----------|-----0--0------0--0-----|-----0--0------0-----|
D------------------------|------------------------|---------------------|

D---------|------------------------|-----------------------|------------|
A---------|------------------------|-----------------------|------------|
F------0--|--2--------/5--------0--|--2-----------5--6--7--|--9---------|
C------0--|--2--------45--------0--|--2-----------5--6--7--|--9---------|
G---0-----|-----0--0------0--0-----|-----0--0--0-----------|------------|
D---------|------------------------|-----------------------|------------|

D---------------------|-------------------------|-----------------------|
A---------------------|-------------------------|-----------------------|
F------------9--------|--10-----------10--------|--7-----------7--------|
C------------9--------|--10-----------10--------|--7-----------7--------|
G---0--0--0-----0--0--|------0--0--0------0--0--|-----0--0--0-----0-----|
D---------------------|-------------------------|-----------------------|

D------|--------------------|--------------------------|----------------|
A------|--------------------|--------------------------|----------------|
F------|--9--------9--7--9--|--9--------------9--------|--10------------|
C------|--9--------9--7--9--|--9--------------9--------|--10------------|
G---0--|-----0--0-----------|--------0--0--0-----0--0--|------0--0------|
D------|--------------------|--------------------------|----------------|

D----------------|-----------------------|--------------------|---------|
A----------------|-----------------------|--------------------|---------|
F------10--------|--7-----------7--------|--9--------9--9--9--|---------|
C------10--------|--7-----------7--------|--9--------9--9--9--|---------|
G---0------0--0--|-----0--0--0-----0--0--|-----0--0-----------|---------|
D----------------|-----------------------|--------------------|---------|


       Chorus
D------------------------------------------------------|----------------|
A------------------------------------------------------|----------------|
F------------------------------------------------------|----------------|
C---------------9-----5-----4--2--2--9-----4--5--4--2--|--------9-------|
G---------------9-----5-----4--2--2--9-----4--5--4--2--|--------9-------|
D------0--------------------------0-----0--------------|--0-------------|

D-----------------------------------------------------------------------|
A-----------------------------------------------------------------------|
F-----------------------------------------------------------------------|
C---5-----4--2--2--9-----4--5--------------9-----5-----4--2--2--9-------|
G---5-----4--2--2--9-----4--5--------------9-----5-----4--2--2--9-------|
D---------------0-----0-----------0--------------------------0-----0----|

D---------------|-------------------------------------------------------|
A---------------|-------------------------------------------------------|
F---------------|-----------------------------------------2--------4----|
C---4--5--4--2--|--------9-----5-----4--2--2--9-----4--5--2--------4----|
G---4--5--4--2--|--------9-----5-----4--2--2--9-----4--5-----0--0-------|
D---------------|--0-----------------------0-----0----------------------|

D-----------------|------------------------|----------------------------|
A-----------------|------------------------|----------------------------|
F----/5--------0--|--2--------/5--------0--|--2--------/5--------0------|
C---/-5--------0--|--2--------45--------0--|--2--------45--------0------|
G--------0--0-----|-----0--0------0--0-----|-----0--0------0--0---------|
D-----------------|------------------------|----------------------------|


                               2nd Verse
D---|-----------------------|-----------------------------|-------------|
A---|-----------------------|-----------------------------|-------------|
F---|--2-----------5--6--7--|--2--------4--/--5--------0--|--2----------|
C---|--2-----------5--6--7--|--2--------4--/--5--------0--|--2----------|
G---|-----0--0--0-----------|-----0--0-----------0--0-----|-----0--0----|
D---|-----------------------|-----------------------------|-------------|

D---------------------|-----------------------------|-------------------|
A---------------------|-----------------------------|-------------------|
F---4--/--5--------0--|--2--------4--/--5--------0--|--2-----------5----|
C---4--/--5--------0--|--2--------4--/--5--------0--|--2-----------5----|
G------------0--0-----|-----0--0-----------0--0-----|-----0--0--0-------|
D---------------------|-----------------------------|-------------------|

D---------|--------------------------------|----------------------------|
A---------|--------------------------------|----------------------------|
F---6--7--|-----2--------4--/--5--------0--|--2--------4--/--5----------|
C---6--7--|-----2--------4--/--5--------0--|--2--------4--/--5----------|
G---------|--------0--0-----------0--0-----|-----0--0-----------0--0----|
D---------|--------------------------------|----------------------------|

D------|-----------------------------|-----------------------|----------|
A------|-----------------------------|-----------------------|----------|
F---0--|--2--------4--/--5--------0--|--2-----------5--6--7--|--9-------|
C---0--|--2--------4--/--5--------0--|--2-----------5--6--7--|--9-------|
G------|-----0--0-----------0--0-----|-----0--0--0-----------|----------|
D------|-----------------------------|-----------------------|----------|

D---------------------|-------------------------|-----------------------|
A---------------------|-------------------------|-----------------------|
F------------9--------|--10-----------10--------|--7-----------7--------|
C------------9--------|--10-----------10--------|--7-----------7--------|
G---0--0--0-----0--0--|------0--0--0------0--0--|-----0--0--0-----0-----|
D---------------------|-------------------------|-----------------------|

D------|--------------------|--------------------------|----------------|
A------|--------------------|--------------------------|----------------|
F------|--9--------9--7--9--|--9--------------9--------|--10------------|
C------|--9--------9--7--9--|--9--------------9--------|--10------------|
G---0--|-----0--0-----------|--------0--0--0-----0--0--|------0--0------|
D------|--------------------|--------------------------|----------------|

D----------------|-----------------------|--------------------|---------|
A----------------|-----------------------|--------------------|---------|
F------10--------|--7-----------7--------|--9--------9--9--9--|---------|
C------10--------|--7-----------7--------|--9--------9--9--9--|---------|
G---0------0--0--|-----0--0--0-----0--0--|-----0--0-----------|---------|
D----------------|-----------------------|--------------------|---------|


    Chorus
D---------------------------------------------------|-------------------|
A---------------------------------------------------|-------------------|
F---------------------------------------------------|-------------------|
C------------9-----5-----4--2--2--9-----4--5--4--2--|--------9-----5----|
G------------9-----5-----4--2--2--9-----4--5--4--2--|--------9-----5----|
D---0--------------------------0-----0--------------|--0----------------|

D---------------------------|-------------------------------------------|
A---------------------------|-------------------------------------------|
F---------------------------|-------------------------------------------|
C------4--2--2--9-----4--5--|-----------9-----5-----4--2--2--9-----4----|
G------4--2--2--9-----4--5--|-----------9-----5-----4--2--2--9-----4----|
D------------0-----0--------|--0--------------------------0-----0-------|


                                                          Solo
D------------|-----------------------------------------|----------------|
A------------|-----------------------------------------|----------------|
F------------|-----------------------------------------|-----7^--7------|
C---5--4--2--|--------9-----5-----4--2--2--9-----4--5--|----------------|
G---5--4--2--|--------9-----5-----4--2--2--9-----4--5--|----------------|
D------------|--0-----------------------0-----0--------|----------------|

D-------------------------------------------------/17--17--17--17-------|
A-----------------------------------------------------------------------|
F---6-----------------------19^--16--17--16--14-------------------------|
C------7---\---7--9--10--9----------------------------------------------|
G-----------------------------------------------------------------------|
D-----------------------------------------------------------------------|

D---17--27--17--17--17--19--20--19-----22^--19--20--19--17--------------|
A-----------------------------------------------------------------------|
F------------------------------------------------------------/16--------|
C-----------------------------------------------------------------------|
G-----------------------------------------------------------------------|
D-----------------------------------------------------------------------|


D-----------------------------------------------------------------------|
A---------------------------------------------14---------------12-------|
F---~~~---/16~~~------16--17--16--------------16^--------------14^------|
C-----------------17----------------------------------------------------|
G---------------------------------0--0--0--0-------0--0--0--0-----------|
D-----------------------------------------------------------------------|

D-----------------------------------------------------------------------|
A---------------11---------------12-------------------------------------|
F---------------13^--------------14^---/16~~~---/16~~~------16--17------|
C-------------------------------------------------------17--------------|
G---0--0--0--0-------0--0--0--0-----------------------------------------|
D-----------------------------------------------------------------------|

D-----------------------------------------------------------------------|
A-------------------14---------------12---------------11----------------|
F---16--------------16^--------------14^--------------13^---------------|
C-----------------------------------------------------------------------|
G-------0--0--0--0-------0--0--0--0-------0--0--0--0-------0--0--0------|
D-----------------------------------------------------------------------|

D-----------------------------------------------------------------------|
A------12---------------------------------------------------------------|
F------14^------------------------------------------------10-----12-----|
C-----------------------------------------------------------------------|
G---0----------8-----7--8--10--8--7--------9--10--12--10----------------|
D-----------------------------------------------------------------------|


                                                              Dive
D----------------------------------------------------------|------------|
A----------------------------------------------------------|------------|
F------14-----15--14---------12-----14--16-----17--16------|------------|
C---------------------15-------------------------------17--|------------|
G----------------------------------------------------------|------------|
D----------------------------------------------------------|------------|


                w/Bar
D-------------------------|----------19~~~--|---------------|-----------|
A---------------19~~~-----|------20---------|--19~~~--------|-----------|
F-------------------------|--19-------------|---------------|--2--------|
C-------------------------|-----------------|---------------|--2--------|
G-------------------------|-----------------|---------------|-----0-----|
D-------------------------|-----------------|---------------|-----------|

D-------------------|------------------------|--------------------------|
A-------------------|------------------------|--------------------------|
F------/5--------0--|--2--------/5--------0--|--2--------/5--------0----|
C------45--------0--|--2--------45--------0--|--2--------45--------0----|
G---0------0--0-----|-----0--0------0--0-----|-----0--0------0--0-------|
D-------------------|------------------------|--------------------------|

D---|-----------------------|-------------------------------------------|
A---|-----------------------|-------------------------------------------|
F---|--2-----------5--6--7--|-------------------------------------------|
C---|--2-----------5--6--7--|-----------9-----5-----4--2--2--9-----4----|
G---|-----0--0--0-----------|-----------9-----5-----4--2--2--9-----4----|
D---|-----------------------|--0--------------------------0-----0-------|

D------------|-----------------------------------------|----------------|
A------------|-----------------------------------------|----------------|
F------------|-----------------------------------------|----------------|
C---5--4--2--|--------9-----5-----4--2--2--9-----4--5--|-----------9----|
G---5--4--2--|--------9-----5-----4--2--2--9-----4--5--|-----------9----|
D------------|--0-----------------------0-----0--------|--0-------------|

D---------------------------------------|-------------------------------|
A---------------------------------------|-------------------------------|
F---------------------------------------|-------------------------------|
C------5-----4--2--2--9-----4--5--4--2--|--------9-----5-----4--2--2----|
G------5-----4--2--2--9-----4--5--4--2--|--------9-----5-----4--2--2----|
D------------------0-----0--------------|--0-----------------------0----|

D---------------|-----------------------------|-------------------------|
A---------------|-----------------------------|-------------------------|
F---------------|--2--------4--/--5--------0--|--2--------4--/--5-------|
C---9-----4--5--|--2--------4--/--5--------0--|--2--------4--/--5-------|
G---9-----4--5--|-----0--0-----------0--0-----|-----0--0-----------0----|
D------0--------|-----------------------------|-------------------------|

D---------|-----------------------------|-----------------------|-------|
A---------|-----------------------------|-----------------------|-------|
F------0--|--2--------4--/--5--------0--|--2-----------5--6--7--|-------|
C------0--|--2--------4--/--5--------0--|--2-----------5--6--7--|--5----|
G---0-----|-----0--0-----------0--0-----|-----0--0--0-----------|--5----|
D---------|-----------------------------|-----------------------|-------|

D-----------------------------------------------------------------------|
A-----------------------------------------------------------------------|
F-----------------------------------------------------------------------|
C---2-------------------------------------------------------------------|
G---2-------------------------------------------------------------------|
D-----------------------------------------------------------------------|


comments
We did not receive enough feedback on this tab! Please rate:
print report bad tab
1 2 3 4 5
1 comment total.
0 reply
Guitargod7222 wrote on April 8 2012, 06:22 pm

I don't know how you managed to do this, but the tab you put in this for "Tonight (We Need A Lover)" is completely wrong. It's not even for the same song. It looks like you posted the tab for the song "Tonight" off of Too Fast For Love instead somehow. Just thought I'd point that out. All the other tabs are a good attempt, but not entirely correct.

I want to post or [tab]
guest
You may want to rate the tab now too:
select rating
Please do not post tabs as comments. Select "correction" instead!