Oops, an error
Loading. Please wait.

Too Fast For Love Tab

ver1
ver1

Album

Whole song

Interactive

More versions @911Tabs.com
14,800 views 12 this week
2 commentsread comments
1 2 3 4 5
worth learning
x 4
Autoscroll
+/-
esc
set tempo
stop
Contributor
Hey! There's an official Ultimate Guitar app which is ideal
for learning songs when you're away from computer. Get the app
WARNING: You are trying to view
                                    content from Ultimate-Guitar.com
                                    in an unauthorized application,
                                    which is prohibited.

                                    Please use an official Ultimate
                                    Guitar Tabs application for iPhone,
                                    iPad or Android to access legitimate
                                    chords, guitar, bass, and drum tabs
                                    from Ultimate-Guitar.com database.

                                    Type "ultimate guitar tabs" in Apple
                                    App Store's or Android Market's
                                    search to find the application.
Band - Motley Crue
Album - Too Fast For Love

1. Live Wire
2. Come on and Dance
3. Public Enemy #1
4. Merry-Go-Round
5. Take Me to the Top
6. Piece Of Your Action
7. Starry Eyes
8. Too Fast for Love
9. On With the Show
10. Toast of the Town
11. Tonight (We Need a Lover)
12. Too Fast for Love (Alt. Intro)
13. Stick to Your Guns


1. LIVE WIRE
drop D tuning- DGCFAD

x- palm mute
PM- palm mute
nh- natural harmonic
b- bend
p- pull off
\- slide up
^- use bar
~- let ring
\/\/- pick scrape

intro
       PM             PM            PM
d-----------------------------------------------------|
g-----------------------------------------------------|
c--5-------------5-----------5--------------5-5-x-7-7-|
f--5-------------5-----------5--------------5-5-x-7-7-|
a----0-0-0-0-0-----0-0-0-0-0---0-0-0-0-0-0------------|
d-----------------------------------------------------|

         PM          PM            PM     nh-----------------|
d------------------------------------------------------------|
g---------------------------------------------------------5--|
c--5------------5-----------5------------------------5-5-----|
f--5------------5-----------5--------------5----5--5---------|
a----0-0-0-0-0----0-0-0-0-0---0-0-0-0-0-0----5---------------|
d------------------------------------------------------------|

        PM           PM           PM
d----------------------------------------------------|
g----------------------------------------------------|
c--5------------5-----------5--------------5-5-x-7-7-|
f--5------------5-----------5--------------5-5-x-7-7-|
a----0-0-0-0-0----0-0-0-0-0---0-0-0-0-0-0------------|
d----------------------------------------------------|

        PM             PM        PM
d------------------------------------------------------------|
g------------------------------------------------------------|
c--5-------------5-----------5---------7b--5-----------------|
f--5-------------5-----------5-----------------7-5-----------|
a----0-0-0-0-0-----0-0-0-0-0---0-0-0----------------7-5------|
d--------------------------------------------------------8-5-|

verse
         PM           PM           PM          PM
d---------------------------------------------------------------|
g---------------------------------------------------------------|
c--5-------------5------------5--------------7-----7-x--5-------|
f--5-------------5------------5--------------7-----7-x--5-------|
a-----0-0-0-0-0----0-0-0-0-0----0-0-0-0-0-0----0-0--------------|
d----------------------------------------------------------5--7-|

        PM             PM          PM         PM
d----------------------------------------------------------|
g----------------------------------------------------------|
c--5------------5------------5--------------7-----7-x------|
f--5------------5------------5--------------7-----7-x------|
a----0-0-0-0-0-----0-0-0-0-0---0-0-0-0-0-0----0-0----------|
d------------------------------------------------------5-7-|

pre chorus
        PM              PM          PM         PM
d------------------------------------------------------------------------------|
g------------------------------------------------------------------------------|
c-5-------------5-----------5-------------7-----7-x----------------------------|
f-5-------------5-----------5-------------7-----7-x--------10------------------|
a----0-0-0-0-0----0-0-0-0-0---0-0-0-0-0-0---0-0------6-7---8---8p7-------------|
d-------------------------------------------------------------------10-8--10-7-|

d-------------------------------|
g-------------------------------|
c---------------------------7\--|
f--12-----------------------7\--|
a--10----10p9---------------5\--|
d-------------12-10---12-8\-----|

chorus- x8
  PM          PM     PM    PM
d-------------------------------|
g-------------------------------|
c-------5--7------5-5---7-------|
f-------7--9------7-7---9-------|
a--0-0--------0-0-----0---0-0-0-|
d-------------------------------|

interlude
       PM             PM            PM
d-----------------------------------------------------|
g-----------------------------------------------------|
c--5-------------5-----------5--------------5-5-x-7-7-|
f--5-------------5-----------5--------------5-5-x-7-7-|
a----0-0-0-0-0-----0-0-0-0-0---0-0-0-0-0-0------------|
d-----------------------------------------------------|

       PM             PM            PM       nh
d------------------------------------------------------------|
g------------------------------------------------------------|
c--5-------------5-----------5-------------------------------|
f--5-------------5-----------5-------------------------------|
a----0-0-0-0-0-----0-0-0-0-0---0-0-0-0-0-0---5^-\pick slide\-|
d------------------------------------------------------------|

      PM             PM         PM
d--------------------------------------------------------|
g--------------------------------------------------------|
c--5-------------5-----------5-------7b--5---------------|
f--5-------------5-----------5-------------7-5-----------|
a----0-0-0-0-0-----0-0-0-0-0---0-0-0------------7-5------|
d----------------------------------------------------8-5-|

gtr 2- a few pull ups with the bar give you the whining effect
d----------------------------------------------------------|
g----------------------------------------------------------|
c------------------------------------7b^---7^-5^-----------|
f-----------------------------------------------7-5--------|
a----------------------------------------------------7-5-\-|
d----------------------------------------------------------|

verse
         PM           PM           PM          PM
d---------------------------------------------------------------|
g---------------------------------------------------------------|
c--5-------------5------------5--------------7-----7-x--5-------|
f--5-------------5------------5--------------7-----7-x--5-------|
a-----0-0-0-0-0----0-0-0-0-0----0-0-0-0-0-0----0-0--------------|
d----------------------------------------------------------5--7-|

        PM             PM          PM         PM
d----------------------------------------------------------|
g----------------------------------------------------------|
c--5------------5------------5--------------7-----7-x------|
f--5------------5------------5--------------7-----7-x------|
a----0-0-0-0-0-----0-0-0-0-0---0-0-0-0-0-0----0-0----------|
d------------------------------------------------------5-7-|

      PM             PM            PM
d-----------------------------------------------------|
g-----------------------------------------------------|
c--5-------------5-----------5--------------5-5-x-7-7-|
f--5-------------5-----------5--------------5-5-x-7-7-|
a----0-0-0-0-0-----0-0-0-0-0---0-0-0-0-0-0------------|
d-----------------------------------------------------|

pre chorus
        PM              PM          PM         PM
d-----------------------------------------------------------------------------|
g-----------------------------------------------------------------------------|
c-5------------5-----------5-------------7-----7-x----------------------------|
f-5------------5-----------5-------------7-----7-x--------10------------------|
a----0-0-0-0-0---0-0-0-0-0---0-0-0-0-0-0----0-0------6-7---8--8p7-------------|
d-----------------------------------------------------------------10-8---10-7-|

d-------------------------------|
g-------------------------------|
c---------------------------7\--|
f--12-----------------------7\--|
a--10----10p9---------------5\--|
d-------------12-10---12-8\-----|

chorus- x8
  PM          PM     PM    PM
d-------------------------------|
g-------------------------------|
c-------5--7------5-5---7-------|
f-------7--9------7-7---9-------|
a--0-0--------0-0-----0---0-0-0-|
d-------------------------------|

bridge- slow with little distortion
d----------------------------------------------------|
g--5-------------------------------------------------|
c--5--------------12--------------10--------------12-|
f--7--------------12--------------10--------------12-|
a----\/\/\/\/\/\/-10-\/\/\/\/\/\/-8--\/\/\/\/\/\/-10-|
d----------------------------------------------------|

softer with less distortion
d------------------------------------------------|
g--5--------------3--------------1-------------3-|
c--5--------------4--------------2-------------4-|
f--7--------------5--------------3-------------5-|
a------------------------------------------------|
d------------------------------------------------|

d-----------------------------------------------------------------|
g--5--------------3--------------1-------------3------------------|
c--5--------------4--------------2-------------4------------------|
f--7--------------5--------------3-------------5--x\-\/\/\/\/\/\/-|
a-----------------------------------------------------------------|
d-----------------------------------------------------------------|

chorus- x4
  PM          PM     PM    PM
d-------------------------------|
g-------------------------------|
c-------5--7------5-5---7-------|
f-------7--9------7-7---9-------|
a--0-0--------0-0-----0---0-0-0-|
d-------------------------------|

x4                                                play at the end of 4th time
d-------------------------------------------------|----------------------|
g-------------------------------------------------|----------------------|
c-------------------------------------------------|--------------------5-|
f-------------------------------------------------|--------------------5-|
a--3---2---0---2-3~------2------3---5---3---2---0-|-2---3---5--3--2--0---|
d-------------------------------------------------|----------------------|

gtr 2,  play these 4 times alternating, starting at the beginning of each riff
d-------------------------|------------------------|
g-------------------------|------------------------|
c--5--------------------5-|--5-------------------5-|
f--7--------------------5-|--5-------------------5-|
a-------------------------|------------------------|
d-------------------------|------------------------|

outro
       PM             PM            PM
d-----------------------------------------------------|
g-----------------------------------------------------|
c--5-------------5-----------5--------------5-5-----7-|
f--5-------------5-----------5--------------5-5-----7-|
a----0-0-0-0-0-----0-0-0-0-0---0-0-0-0-0-0------------|
d-----------------------------------------------------|

      PM             PM            PM
d-----------------------------------------------------|
g-----------------------------------------------------|
c--5-------------5-----------5--------------5-5-----7-|
f--5-------------5-----------5--------------5-5-----7-|
a----0-0-0-0-0-----0-0-0-0-0---0-0-0-0-0-0------------|
d-----------------------------------------------------|

      PM             PM            PM
d-----------------------------------------------------|
g-----------------------------------------------------|
c--5-------------5-----------5--------------5-5-----7-|
f--5-------------5-----------5--------------5-5-----7-|
a----0-0-0-0-0-----0-0-0-0-0---0-0-0-0-0-0------------|
d-----------------------------------------------------|

      PM             PM            PM
d----------------------------------------------------------------------|
g----------------------------------------------------------------------|
c--5-------------5-----------5--------------5--------------------------|
f--5-------------5-----------5--------------5---------------------2--2-|
a----0-0-0-0-0-----0-0-0-0-0---0-0-0-0-0-0-------0--0--2--3--2----0--0-|
d----------------------------------------------3---------------3-------|

2. COME ON AND DANCE
Drop D tuning


(Intro)- PM all open D's
-------------------------------------------------|
-------------------------------------------------|
-------------------------------------------------|
--------7-----6--------7-----6-----7-----4--4--4-|
--------5-----4--------5-----4-----5-----2--2--2-|
--0--0-----0-----0--0-----0-----0-----0----------|

-------------------------------------------------|
-------------------------------------------------|
-------------------------------------------------|
-------7----6--------7-------6-----7-------------|
-------5----4--------5-------4-----5-------------|
--0--0----0-----0--0-----0-----0------3--2--0--0-|

---------------------------------------------|
---------------------------------------------|
---------------------------------------------|
--------7-----6--------7----6----7-----4-4-4-|
--------5-----4--------5----4----5-----2-2-2-|
--0--0-----0-----0--0-----0----0----0--------|

---------------------------------------------|
---------------------------------------------|
---------------------------------------------|
--------7-----6--------7-----6-----7----/----|
--------5-----4--------5-----4-----5----/----|
--0--0-----0-----0--0-----0-----0-------/----|

(Verse)
---------------------------------------------------------|
---------------------------------------------------------|
---------------------------------------------------------|
--2--2--------7----2--2--------7----2--2--------7--------|
--2--2--------5----2--2--------5----2--2--------5-----7--|
--0--0-----0-------0--0-----0-------0--0--0--0--------5--|

---------------------------------------------------------|
---------------------------------------------------------|
---------------------------------------------------------|
---2--2--------7----2--2--------7----2--2--------7-------|
---2--2--------5----2--2--------5----2--2--------5-----7-|
---0--0-----0-------0--0-----0-------0--0--0--0--------5-|

--------------------------------|
--------------------------------|
--------------------------------|
---7------4-------7-------------|
---5------2-------5-------------|
------0-------0---------3--2--3-|

(Chorus) PM all open D's
-------------------------------------------------|
-------------------------------------------------|
-------------------------------------------------|
-------7------6---------7-----6------7-----4-4-4-|
--2----5------4---------5-----4------5-----2-2-2-|
--0--------0------0--0-----0------0------0-------|

-------------------------------------------------|
-------------------------------------------------|
-------------------------------------------------|
--------7-----6--------7-----6-----7-------------|
--------5-----4--------5-----4-----5-------------|
--0--0-----0-----0--0-----0-----0-----3--2--0--0-|

-------------------------------------------------|
-------------------------------------------------|
-------------------------------------------------|
-----7--------6-----7-----6-----7-----4--4--4----|
-----5--------4-----5-----4-----5-----2--2--2----|
--0-----0--0-----0-----0-----0-------------------|

-------------------------------------------------|
-------------------------------------------------|
-------------------------------------------------|
-------7----6--------7-----6-----7---------------|
-------5----4--------5-----4-----5---------------|
--0--0----0----0--0-----0-----0-----3--2--3------|

(Verse)
---------------------------------------------------------------------|
---------------------------------------------------------------------|
---------------------------------------------------------------------|
--2--2---------7-----2--2-------7----2--2--------7-------2--2------7-|
--2--2---------5-----2--2-------5----2--2--------5--7----2--2------5-|
--0--0-----0---------0--0----0-------0--0--0--0-----5----0--0----0---|

--------------------------------------------------------|
--------------------------------------------------------|
--------------------------------------------------------|
--2--2--------7----2--2--------7---------7------4-----7-|
--2--2--------5----2--2--------5---7-----5------2-----5-|
--0--0-----0-------0--0--0--0------5---------0------0---|

---------------------------------------------------------|
---------------------------------------------------------|
---------------------------------------------------------|
--2--2--------7-----------7--------4-----------7---------|
--2--2--------5-----7-----5--------2-----------5---------|
--0--0--0--0--------5----------0-----------0-------3-2-3-|

chorus- PM all open D's
--------------------------------------------|
--------------------------------------------|
--------------------------------------------|
-----7-----6--------7-----6-----7-----4-4-4-|
-2---5-----4--------5-----4-----5-----2-2-2-|
-0------0-----0--0-----0-----0-----0--------|

------------------------------------------------------------------------|
------------------------------------------------------------------------|
------------------------------------------------------------------------|
-------7-----6--------7-----6-----7-----------------7-----6--------7----|
-------5-----4--------5-----4-----5-----------------5-----4--------5----|
--0--0----0-----0--0-----0-----0-----3--2-----0--0-----0-----0--0-----0-|

------------------------------------------------------------------------|
------------------------------------------------------------------------|
------------------------------------------------------------------------|
-----7----6-------7---6------7---4-4-4-------7---6------7---6---7-------|
-----5----4-------5---4------5---2-2-2-------5---4------5---4---5-------|
0--0----0----0--0---0-----0-------------0--0---0---0--0---0---0---3-2-3-|

solo
-----------------------------------------------------|
-----------------------------------------------------|
-7-----7-----7-----7-------7-----7-----7-----7-------|
----7-----7-----7-----7-------7-----7-----7-----7----|
-----------------------------------------------------|
-----------------------------------------------------|

(Verse)
-----------------------------------------------------|
-----------------------------------------------------|
-----------------------------------------------------|
--2--2--------7----2--2--------7----2--2--------7----|
--2--2--------5----2--2--------5----2--2--------5--7-|
--0--0-----0-------0--0-----0-------0--0--0--0-----5-|

-----------------------------------------------------|
-----------------------------------------------------|
-----------------------------------------------------|
--2--2--------7----2--2--------7----2--2--------7----|
--2--2--------5----2--2--------5----2--2--------5--7-|
--0--0-----0-------0--0-----0-------0--0--0--0-----5-|

(Chorus)- PM all open D's
------------------------------------------------|
------------------------------------------------|
------------------------------------------------|
--7------4-------7----------------------7-----6-|
--5------2-------5----------------2-----5-----4-|
-----0-------0---------3--2--3----0--------0----|

-----------------------------------------------------------------------|
-----------------------------------------------------------------------|
-----------------------------------------------------------------------|
----7---6-------7-----6-----7-----4--4--4----7-------4--------7--------|
2---5---4-------5-----4-----5-----2--2--2----5-------2--------5--------|
0-----0----0--0-----0-----0----0-----------------0--------0------3-2-3-|

PM all open D's
-------------------------------------------------|
-------------------------------------------------|
-------------------------------------------------|
--------7-----6--------7-----6-----7-----4--4--4-|
--2-----5-----4--------5-----4-----5-----2--2--2-|
--0--------0-----0--0-----0-----0-----0----------|

-------------------------------------------|
-------------------------------------------|
-------------------------------------------|
-------7-----6--------7-----6-----7--------|
-------5-----4--------5-----4-----5--------|
--0--0-----0-----0--0-----0-----0-----3--2-|

------------------------------------------------------------------------|
------------------------------------------------------------------------|
------------------------------------------------------------------------|
-----7----6-------7---6------7---4-4-4-------7---6------7---6---7-------|
-----5----4-------5---4------5---2-2-2-------5---4------5---4---5-------|
0--0----0----0--0---0-----0-------------0--0---0---0--0---0---0---3-2-3-|

---------------------------------------------|
---------------------------------------------|
---------------------------------------------|
----7-------6------7-----6-----7-----4--4--4-|
----5-------4------5-----4-----5-----2--2--2-|
--0----0--0-----0-----0-----0----------------|

---------------------------------------------|
---------------------------------------------|
---------------------------------------------|
-------7---6--------7-----6-----7------------|
-------5---4--------5-----4-----5------------|
--0-0----0----0--0-----0-----0------3--2--3--|

------------------------------------------------------------------------|
------------------------------------------------------------------------|
------------------------------------------------------------------------|
-----7----6-------7---6------7---4-4-4-------7---6------7---6---7-------|
-----5----4-------5---4------5---2-2-2-------5---4------5---4---5-------|
0--0----0----0--0---0-----0-------------0--0---0---0--0---0---0---3-2-3-|

-------------------------------------------|
-------------------------------------------|
-------------------------------------------|
--7-----6--------7-----6-----7-----4--4--4-|
--5-----4--------5-----4-----5-----2--2--2-|
-----0-----0--0-----0-----0-----0----------|

-------------------------------------------|
-------------------------------------------|
-------------------------------------------|
-------7---6-------7-----6-----7-----------|
-------5---4-------5-----4-----5-----------|
--0--0---0----0--0----0-----0------3--2--3-|

-----------------------------------|
-----------------------------------|
-----------------------------------|
--7---6------7----6----7---4--4--4-|
--5---4------5----4----5---2--2--2-|
----0---0--0----0----0-------------|

----------------------------------------------|
----------------------------------------------|
----------------------------------------------|
------7------6--------7-----6-----7-----------|
------5------4--------5-----4-----5-----------|
-0--0-----0-----0--0-----0-----0------3--2--3-|


3. PUBLIC ENEMY #1
drop d tuning- DGCFAD

x-palm muted
p-pull off

intro-x8
d---------|
g---------|
c--9999x9-|
f--9999x9-|
a--7777x7-|
d---------|

lead after 4th time
d--10-9-10-9-10-9-10p9p7--10-9-10-9-10-9-10p9p7-|
g-----------------------------------------------|
c-----------------------------------------------|
f-----------------------------------------------|
a-----------------------------------------------|
d-----------------------------------------------|

d-----------------------------------------------|
g--10-9-10-9-10-9-10p9p7--10-9-10-9-10-9-10p9p7-|
c-----------------------------------------------|
f-----------------------------------------------|
a-----------------------------------------------|
d-----------------------------------------------|

then the verse starts out with a power chord like
c-9
f-7
a-7
and then its palm muted then open

4. MERRY-GO-ROUND
Fig.A (plays two guitars: one acustic and the other
electric with palm mute):
    F                    Am                    F7
D-|---------------------|---------------------|----------------------|
A-|---1-------1------1--|---1-------1------1--|---1-------1------1---|
F-|------2------2-------|------2------2-------|------2------2--------|
C-|-3------3-------3----|-2------2-------2----|-1------1-------1-----|
G-|---------------------|---------------------|----------------------|
D-|---------------------|---------------------|----------------------|

    G                    Dm                    Fm6 or
A#7
D-|---3-------3---------|---------------------|----------------------|
A-|------3------3----0--|---3-------3------3--|---3-------3------3---|
F-|-0------0-------0----|------2------2-------|------1------1--------|
C-|---------------------|-3------3-------3----|-3------3-------3-----|
G-|---------------------|---------------------|----------------------|
D-|---------------------|---------------------|----------------------|

								    A1:
    C                    Am                    C
             Am
D-|---------------------|---------------------|--------------------|-------||
A-|---1-------1---------|---1-------1---------|---1-------1--------|-------||
F-|------0------0-------|------2------2-------|------0------0------|--2----||
C-|--------2------------|--------2------------|--------2-----------|--2-0--||
G-|-3-------------------|-0--------------0-2--|-3------------------|--0----||
D-|----------------3-4--|---------------------|----------------3-4-|-------||

A2:
 Am
|---------------------||
|---1-------1-----1---||
|------2------2-------||
|--------2------2-----||
|-0-------------------||
|---------------------||

Fig.B:
    F5                 G5                      A5
         Ab5
D-|-----------------------|-----------------------|--------------------|
A-|-----------------------|-----------------------|--------------------|
F-|-----------------------|-----------------------|--------------------|
C-|-3------------------5--|^5------------------7--|----7--7-----6------|
G-|-3------------------5--|^5------------------7--|----7--7-----6------|
D-|-1-1--1-1--1-1--1-1-3--|^3-3--3-3--3-3--3-3-5--|----5--5-----4------|

                   G5                    F#5
          A5
D-|-----------------------|-----------------------|--------------------|
A-|-----------------------|-----------------------|--------------------|
F-|-----------------------|-----------------------|--------------------|
C-|------6--6------5------|-----5--5-----4--------|----4--4------7-----|
G-|------6--6------5------|-----5--5-----4--------|----4--4------7-----|
D-|------4--4------3------|-----3--3-----2--------|----2--2------5-----|

                   Ab5                   G5
          F#5
D-|-----------------------|-----------------------|--------------------|
A-|-----------------------|-----------------------|--------------------|
F-|-----------------------|-----------------------|--------------------|
C-|------7--7------6------|-----6--6-----5--------|----5--5------4-----|
G-|------7--7------6------|-----6--6-----5--------|----5--5------4-----|
D-|------5--5------4------|-----4--4-----3--------|----3--3------2-----|

     F         E
D-|-------|---------||
A-|-------|---------||
F-|-------|---------||
C-|--3----|----2----||
G-|--3----|----2----||
D-|--1----|----0----||

    Solo:
           1+
D-|--------------------|--------------------|--------------------------|
A-|--------------------|--------------------|--------------------------|
F-|-5-7--9-5--7-9--5-7-|-9-5--7-9--5-7--9-5-|-4-5--7-4--5-7--4-7--7----|
C-|--------------------|--------------------|--------------------------|
G-|--------------------|--------------------|--------------------------|
D-|--------------------|--------------------|--------------------------|


             1+....-
D-|---------------------|--------------------|-----------------------------|
A-|---------------------|--------------------|-----------------------------|
F-|-2-4--5-2--4-5--2-4--|--5-2--4-5--2-4-5-2-|--4-5--7-4--5-7--4-7--7------|
C-|---------------------|--------------------|-----------------------------|
G-|---------------------|--------------------|-----------------------------|
D-|---------------------|--------------------|-----------------------------|


D-|-/8-10--12-8--10-12--8-10--|-12-8--10-12--8-10--12-8-|
A-|---------------------------|-------------------------|
F-|---------------------------|-------------------------|
C-|---------------------------|-------------------------|
G-|---------------------------|-------------------------|
D-|---------------------------|-------------------------|

                         1+
D-|-7-8--10-7--8-10-7-10-10---|-5-7--8-5--7-8--5-7-|-8-5--7-8--5-7--8-5--|
A-|---------------------------|--------------------|---------------------|
F-|---------------------------|--------------------|---------------------|
C-|---------------------------|--------------------|---------------------|
G-|---------------------------|--------------------|---------------------|
D-|---------------------------|--------------------|---------------------|

                         1+     1+     1+     1+
D-|-7-8--10-7--8-10-7-10-10---|-----17-----17-----17-/17--|
A-|---------------------------|-20-----20-----20----------|
F-|---------------------------|---------------------------|
C-|---------------------------|---------------------------|
G-|---------------------------|---------------------------|
D-|---------------------------|---------------------------|

                                        1+-
1+                     1+
D-|-----17^20^17----17--20^17--/24-24-|-20-^17----17--------------------------|
A-|-/20----------20-------------------|--------20----20---17^20^17----17------|
F-|-----------------------------------|----------------------------19----19-17|
C-|-----------------------------------|---------------------------------------|
G-|-----------------------------------|---------------------------------------|
D-|-----------------------------------|---------------------------------------|

                               1+
D-|-------------------------------|-------------|------------|-------------|
A-|-------------------------------|-------------|------------|-------------|
F-|-17^19^17----17----------------|-------------|------------|-------------|
C-|----------19----19-17----------|-------------|------------|-------------|
G-|----------------------17-15-17-|-7-----------|-6----------|-5-----------|
D-|-------------------------------|-5--5-7-8-5--|-4--5-7-8-5-|-3--5-7-8-5--|


D-|------------||
A-|------------||
F-|------------||
C-|------------||
G-|-4----------||
D-|-2--5-7-8-5-||

   End:
D-|-1--|---1---|---------3--||
A-|-3--|---3---|-------1----||
F-|-2--|---1---|-----2------||
C-|-0--|---3---|---2--------||
G-|----|---0---|-0----------||
D-|----|-------|------------||

"How To Play It":

Intro:
[Fig.A with A1 compass]

Verse:
[Fig.A with A2 compass]
[Fig.A with A1 compass]

Chorus:
[Fig.B]

Verse:
[Fig.A with A1 compass]

Chorus:
[Fig.B]

[Solo]

Chorus:
[Fig.B]


5. TAKE ME TO THE TOP
PM- palm mute
h- hammeron
p- pull off
/- slide up
~- let ring
nh- natural harmonic
\\/- dive with bar

d tuning- dafcgd

intro- x8
   PM         PM        PM
d--------------------------------|
a--------------------------------|
f-------9--7-------3--5-----5--7-|
c-------7--7-------3--3-----5--5-|
g--0-0--------0-0--------0-------|
d--------------------------------|

   PM      PM      PM    PM   nh---------|
d----------------------------------------|
a---------------------------------5---5--|
f-------9-------9------9------5-5---5----|
c-------7-------7------7-----------------|
g--0-0-----0-0-----0-0----0--------------|
d----------------------------------------|

   PM      PM      PM     PM
d----------------------------------|
a----------------------------------|
f-------9-------9-------9-----9--7-|
c-------7-------7-------7-----7--5-|
g--0-0-----0-0-----0-0-----0-------|
d----------------------------------|

   PM      PM      PM     PM
d----------------------------------|
a----------------------------------|
f-------9-------9-------9-----9--7-|
c-------7-------7-------7-----7--5-|
g--0-0-----0-0-----0-0-----0-------|
d----------------------------------|


   PM      PM      PM     PM
d-----------------------------------|
a-----------------------------------|
f-------9-------9-------9-----9--7~-|
c-------7-------7-------7-----7--5~-|
g--0-0-----0-0-----0-0-----0--------|
d-----------------------------------|

when picking 16th notes move up the fretboard
d------------------------------------------|
a------------------------------------------|
f------------------------------------------|
c------------------------------------------|
g--3---5---0-0-0-0-0-0-0-0-0-0-0-0-0-0-0-0-|
d--1---3-----------------------------------|

when picking 16th notes move down the fretboard
d------------------------------------------|
a------------------------------------------|
f------------------------------------------|
c------------------------------------------|
g--3---5---0-0-0-0-0-0-0-0-0-0-0-0-0-0-0-0-|
d--1---3-----------------------------------|

verse
           PM------------|      PM---------------|
d------------------------------------------------|
a------------------------------------------------|
f------------------------------------------------|
c----------2-2-2-2-2-2-2-2--5~--2-2-2-2-2-2-2-2--|
g--3---5---0-0-0-0-0-0-0-0--3~--0-0-0-0-0-0-0-0--|
d--1---3-----------------------------------------|

      PM------|     PM------|      PM-----------------|
d-----------------------------------------------------|
a-----------------------------------------------------|
f-----------------------------------------------------|
c--7--7-7-7-7-7--9--9-9-9-9-9--10--10-10-10-10-10-12--|
g--5--5-5-5-5-5--7--7-7-7-7-7--8---8--8--8--8--8--10--|
d-----------------------------------------------------|

           PM------------|      PM---------------|
d------------------------------------------------|
a------------------------------------------------|
f------------------------------------------------|
c----------2-2-2-2-2-2-2-2--5~--2-2-2-2-2-2-2-2--|
g--3---5---0-0-0-0-0-0-0-0--3~--0-0-0-0-0-0-0-0--|
d--1---3-----------------------------------------|

      PM------|     PM------|      PM-----------------|
d-----------------------------------------------------|
a-----------------------------------------------------|
f-----------------------------------------------------|
c--7--7-7-7-7-7--9--9-9-9-9-9--10--10-10-10-10-10-10--|
g--5--5-5-5-5-5--7--7-7-7-7-7--8---8--8--8--8--8--8---|
d-----------------------------------------------------|

chorus- x8
   PM         PM        PM
d--------------------------------|
a--------------------------------|
f-------9--7-------3--5-----5--7-|
c-------7--7-------3--3-----5--5-|
g--0-0--------0-0--------0-------|
d--------------------------------|

   PM      PM      PM     PM
d----------------------------------|
a----------------------------------|
f-------9-------9-------9-----9--7-|
c-------7-------7-------7-----7--5-|
g--0-0-----0-0-----0-0-----0-------|
d----------------------------------|


   PM      PM      PM     PM
d-----------------------------------|
a-----------------------------------|
f-------9-------9-------9-----9--7~-|
c-------7-------7-------7-----7--5~-|
g--0-0-----0-0-----0-0-----0--------|
d-----------------------------------|

when picking 16th notes move up the fretboard
d------------------------------------------|
a------------------------------------------|
f------------------------------------------|
c------------------------------------------|
g--3---5---0-0-0-0-0-0-0-0-0-0-0-0-0-0-0-0-|
d--1---3-----------------------------------|

when picking 16th notes move down the fretboard
d------------------------------------------|
a------------------------------------------|
f------------------------------------------|
c------------------------------------------|
g--3---5---0-0-0-0-0-0-0-0-0-0-0-0-0-0-0-0-|
d--1---3-----------------------------------|

verse
           PM------------|      PM---------------|
d------------------------------------------------|
a------------------------------------------------|
f------------------------------------------------|
c----------2-2-2-2-2-2-2-2--5~--2-2-2-2-2-2-2-2--|
g--3---5---0-0-0-0-0-0-0-0--3~--0-0-0-0-0-0-0-0--|
d--1---3-----------------------------------------|

      PM------|     PM------|      PM-----------------|
d-----------------------------------------------------|
a-----------------------------------------------------|
f-----------------------------------------------------|
c--7--7-7-7-7-7--9--9-9-9-9-9--10--10-10-10-10-10-12--|
g--5--5-5-5-5-5--7--7-7-7-7-7--8---8--8--8--8--8--10--|
d-----------------------------------------------------|

           PM------------|      PM---------------|
d------------------------------------------------|
a------------------------------------------------|
f------------------------------------------------|
c----------2-2-2-2-2-2-2-2--5~--2-2-2-2-2-2-2-2--|
g--3---5---0-0-0-0-0-0-0-0--3~--0-0-0-0-0-0-0-0--|
d--1---3-----------------------------------------|

      PM------|     PM------|      PM-----------------|
d-----------------------------------------------------|
a-----------------------------------------------------|
f-----------------------------------------------------|
c--7--7-7-7-7-7--9--9-9-9-9-9--10--10-10-10-10-10-10--|
g--5--5-5-5-5-5--7--7-7-7-7-7--8---8--8--8--8--8--8---|
d-----------------------------------------------------|

chorus- x8
   PM         PM        PM
d--------------------------------|
a--------------------------------|
f-------9--7-------3--5-----5--7-|
c-------7--7-------3--3-----5--5-|
g--0-0--------0-0--------0-------|
d--------------------------------|

   PM      PM      PM     PM
d----------------------------------|
a----------------------------------|
f-------9-------9-------9-----9--7-|
c-------7-------7-------7-----7--5-|
g--0-0-----0-0-----0-0-----0-------|
d----------------------------------|


   PM      PM      PM     PM
d---------------------------------------|
a---------------------------------------|
f-------9-------9-------9-----9--7-\\/--|
c-------7-------7-------7-----7--5-\\/--|
g--0-0-----0-0-----0-0-----0------------|
d---------------------------------------|

6. PIECE OF YOUR ACTION
drop d tuning- DGCFAD

PM -palm mute
NH -natural harmonic
p -pull off
/ -slide up
\ -slide down
~ -let ring
x -muted

all sliding is done with a slide

INTRO- PM
d-------------------------------------------------------------------|
g-------------------------------------------------------------------|
c----------------------------------------2--------------------------|
f-2-2-2-2-2-2-2-2--2-2-2-2-2-2-2-2--2--2-2-2-2-2-2--2-2-2-2-2-2-2-2-|
a-0-0-0-0-0-0-0-0--0-0-0-0-0-0-0-0--0--0-0-0-0-0-0--0-0-0-0-0-0-0-0-|
d-------------------------------------------------------------------|

  PM    PM      PM        PM                   PM     PM     PM       PM     NH
d--------------------------------------------------------------------------------|
g----------------------------------------------------------------------------5---|
c-----9-----7--------7--7-------5------------------9-----7-------7--7-----5--5---|
f-----7-----5--------5--5-------3---0-3p0----------7-----5-------5--5-----3--5---|
a-0-0----0------0-0---------x--------------3---0-0----0-----0-0--------x---------|
d--------------------------------------------------------------------------------|

  PM    PM      PM        PM                PM     PM    PM      PM      NH
d-------------------------------------------------------------------------------|
g-------------------------------------------------------------------------------|
c-----9-----7-------7--7-----5------------------9-----7------7-7-----5----------|
f-----7-----5-------5--5-----3---0-3p0----------7-----5------5-5-----3--0-3p0---|
a-0-0----0-----0-0--------x-------------3---0-0-----0----0-0------x-----------3-|
d-------------------------------------------------------------------------------|

VERSE   PM                                PM
d--------------------------------------------------------|
g--------------------------------------------------------|
c-4/5-------3/4------2/3---------------------------------|
f-4/5----x--3/4------2/3----------------------2--2--2--2-|
a---------------------------------------------0--0--0--0-|
d-----------------------------------------x--------------|

        PM                                PM
d--------------------------------------------------------|
g--------------------------------------------------------|
c-4/5-------3/4------2/3---------------------------------|
f-4/5----x--3/4------2/3----------------------2--2--2--2-|
a---------------------------------------------0--0--0--0-|
d-----------------------------------------x--------------|

     PM~~~~~~~~|     PM~~~~~~~~|     PM~~~~~~~~|        PM   PM    PM
d--------------------------------------------------------------------------|
g--------------------------------------------------------------------------|
c-4/5------------3/4-------------2/3---------------------------------------|
f-4/5------------3/4-------------2/3-------------------2-----2-----2-----2-|
a----0-0-0-0-0-0-----0-0-0-0-0-0-----0-0-0-0-0-0----0--0--0--0--0--0--0--0-|
d--------------------------------------------------------------------------|

       PM~~~~~~~~|      PM~~~~~~~~~~~~|     PM~~~~~~~~~~~~~~~~~~~~~~~~~~~~~~~~|
d-----------------------------------------------------------------------------|
g-----------------------------------------------------------------------------|
c-4/5---------------3/4-----------------2/3-----------------------------------|
f-4/5---------------3/4-----------------2/3-----------------------------------|
a------0-0-0-0-0-0--------0-0-0-0-0-0-----------0-0-0-0-x\----7-7-7-7-7-7-7-7-|
d-----------------------------------------------------------------------------|

  PM~~~~~~~~~~~~~|
d-------------------------------------------|
g-------------------------------------------|
c-------------------------------------------|
f-6-6-6-6-6-6-6-6---9-9-9-9-9-9-9-9---9-12\-|
a-7-7-7-7-7-7-7-7---7-7-7-7-7-7-7-7---7-12\-|
d-------------------------------------------|

  PM~~~~~~~~~~~~|
d-------------------------------------------|
g-------------------------------------------|
c-------------------------------------------|
f-6-6-6-6-6-6-6-6---9-9-9-9-9-9-9-9---9-12\-|
a-7-7-7-7-7-7-7-7---7-7-7-7-7-7-7-7---7-12\-|
d-------------------------------------------|

  PM    PM     PM        PM    PM              PM    PM       PM    NH
d----------------------------------------------------------------------|
g--------------------------------------------------------------------5-|
c-----9-----7------7--7------5---------------9----7------7--7-----5--5-|
f-----7-----5------5--5------3--0-3p0--------7----5------5--5-----3--5-|
a-0-0----0-----0-0--------x-----------3--0-0----0----0-0--------x------|
d----------------------------------------------------------------------|

 PM    PM     PM       PM                 PM    PM     PM       PM       NH
d------------------------------------------------------------------------------|
g------------------------------------------------------------------------------|
c-----9-----7------7--7-----5------------------9-----7------7--7----5----------|
f-----7-----5------5--5-----3---0-3p0----------7-----5------5-5-----3--0-3p0---|
a-0-0----0-----0-0-------x------------3---0-0-----0-----0-0------x-----------3-|
d------------------------------------------------------------------------------|

solo
  PM    PM     PM        PM
d----------------------------------------------------------------------|
g----------------------------------------------------------------------|
c------9----7------7--7-----5-----------------4/5~-----3/4~-------2/3~-|
f------7----5------5--5-----3---0-3p0----------------------------------|
a-0-0-----0----0-0-------x------------3--------------------------------|
d----------------------------------------------------------------------|

d-------------------------------------------------------------|
g-------------------------------------------------------------|
c--3-3/5--7\5--7\5----------------0-----4/5~---5-5/7-7~--7\3~-|
f-------------------7-\-5-/-7--0------------------------------|
a-------------------------------------------------------------|
d-------------------------------------------------------------|

d---------------------------------------------------------|
g---------------------------------------------------------|
c--3-3/5--7\5--7\--------0--------------------------------|
f-------------------7\5~-----0--/7---7\5-----7--7--7\5----|
a--------------------------------------------5----------5-|
d---------------------------------------------------------|

d-----------------------------------------------------------------|
g-----------------------------------------------------------------|
c-----------------------------------------------------------------|
f-7-7-7\-5-/8~--7\5-------/7--7\5----7--7--7\5-----7--7--7\5---5~-|
a--------------------5------------5-------------5--------------5--|
d-----------------------------------------------------------------|

d----------------------------------------------------------------------------|
g----------------------------------------------------------------------------|
c-----------------------------------2p0---2p0----3p0-----2p0----3p0----2p0---|
f-/7--7p5--7--7-7-7p5--7-7-7p5---8------0------0------0-------0-----0------0-|
a--------5-----------5--------5/---------------------------------------------|
d----------------------------------------------------------------------------|

d--------------------------------------------------------|
g--------------------------------------------------------|
c-2p0---3p0----2p0----2p0----/5---5/7---7\10--10/12--12/-|
f-----0-----0------3-------0-/5---5/7---7\10--10/12------|
a--------------------------------------------------------|
d--------------------------------------------------------|

d-17~--17~-17~--17~-17~--17~--17~--17~-17~-17~--17~-x\x\-|
g--------------------------------------------------------|
c--------------------------------------------------------|
f--------------------------------------------------------|
a--------------------------------------------------------|
d--------------------------------------------------------|

 PM~~~~~~~~~~~~~~~~~~~~~~~~~~~~~~~~~~~~~~~~~~~~~~~~~~~~~~~~~~~~~~~~~~~|
d-----------------------------------------------------------------------------|
g-----------------------------------------------------------------------------|
c-14-14-14-14-14-12---14--14-14-14-12----14--14-14-14-14-14-12--14-14---14/17-|
f------------------14-----------------14-----------------------------14-------|
a-----------------------------------------------------------------------------|
d-----------------------------------------------------------------------------|

 PM~~~~~~~~~~~~~~~~~~~~~~~~~~~~~~~~~~~~~~~~~~~~~~~~~~~~~~~~~~~~~~~~~|
d-----------------------------------------------------------------------------|
g-----------------------------------------------------------------------------|
c-14-14-14-14-14-12---14--14-14-14-14-12---14--14-14-14-14-14-12---14--12-12\-|
f------------------14--------------------14---------------------14------------|
a-----------------------------------------------------------------------------|
d-----------------------------------------------------------------------------|

 PM~~~~~~~~~~~~~~~~~~~~~~~~~~~~~~~~~~~~~~~~~~~~~~~~~~~~~~~~~~~~~~~|
d----------------------------------------------------------------------------|
g----------------------------------------------------------------------------|
c-14-14-14-14-14-12---14--14-14-14-12----14--14-14-14-14-14-12---14-14-14/17-|
f------------------14-----------------14-----------------------14------------|
a----------------------------------------------------------------------------|
d----------------------------------------------------------------------------|


 PM~~~~~~~~~~~~~~~~~~~~~~~~~~~~~~~~~~~~~~~~~~~~~~~~~~~~~~~~~~~~~~~~~|
d-----------------------------------------------------------------------------|
g-----------------------------------------------------------------------------|
c-14-14-14-14-14-12---14--14-14-14-14-12---14--14-14-14-14-14-12---14--12-12\-|
f------------------14-------------------14-----------------------14-----------|
a-----------------------------------------------------------------------------|
d-----------------------------------------------------------------------------|

 PM~~~~~~~~~~~~~~~~~~~~~~~~~~~~~~~~~~~~~~~~~~~~~~~~~~~~~~~~~~~~~~~~~~|
d-----------------------------------------------------------------------------|
g-----------------------------------------------------------------------------|
c-14-14-14-14-14-12---14--14-14-14-12----14--14-14-14-14-14-12---14-14--14/17-|
f------------------14-----------------14-----------------------14-------------|
a-----------------------------------------------------------------------------|
d-----------------------------------------------------------------------------|

 PM~~~~~~~~~~~~~~~~~~~~~~~~~~~~~~~~~~~~~~~~~~~~~~~~~~~~~~~~~~~~~~~|
d------------------------------------------------------------------|
g------------------------------------------------------------------|
c-14-14-14-14-14-12----14-14-14-14-14-12----14-14-14-14-14-14-12---|
f------------------14-------------------14----------------------14-|
a------------------------------------------------------------------|
d------------------------------------------------------------------|

d-------------------------------------|
g-------------------------------------|
c--14-14-14-14-14-14-12\2-/-3-/-4-/-5-|
f-----------------------2-/-3-/-4-/-5-|
a-------------------------------------|
d-------------------------------------|

d-----------------------------------------------------------------------|
g-----------------------------------------------------------------------|
c---2p0----3p0-----2p0-----3p0-----2p0------2p0----3p0----2-2p0---------|
f-0-----0-------0-------0-------0-------0--------0------0----------2--2-|
a------------------------------------------------------------------0--0-|
d-----------------------------------------------------------------------|

  PM    PM    PM       PM         NH
d--------------------------------------|
g------------------------------------5-|
c-----9-----7-----7--7------5------5---|
f-----7-----5-----5--5------3----5-----|
a-0-0----0----0-0--------x-------------|
d--------------------------------------|

OUTRO CHORUS
  PM    PM     PM        PM               PM    PM    PM              NH
d------------------------------------------------------------------------|
g----------------------------------------------------------------------5-|
c-----9-----7-------7--7-----5----------------9-----7------7--7-----5--5-|
f-----7-----5-------5--5-----3--0-3p0---------7-----5------5--5-----3--5-|
a-0-0----0-----0-0--------x-----------3---0-0----0-----0-0-------x-------|
d------------------------------------------------------------------------|

  PM    PM    PM        PM                 PM    PM      PM       PM       NH
d-------------------------------------------------------------------------------|
g-------------------------------------------------------------------------------|
c-----9----7------7--7-----5------------------9------7-------7--7----5----------|
f-----7----5------5--5-----3---0-3p0----------7------5-------5-5-----3--0-3p0---|
a-0-0----0----0-0--------x------------3---0-0-----0------0-0------x-----------3-|
d-------------------------------------------------------------------------------|

                                                           PM
d--------------------------------------------------------------|
g--------------------------------------------------------------|
c--------------------------------------------------------------|
f------------------6-6-6-6-6-6-6-6--9-9-9-9-9-9-9-9--9-----x-x-|
a-7-7-7-7-7-7-7-7--7-7-7-7-7-7-7-7--7-7-7-7-7-7-7-7--7---------|
d-0-0-0-0-0-0-0-0--0-0-0-0-0-0-0-0--0-0-0-0-0-0-0-0--0---------|

d-------------------------------------------------------------|
g-------------------------------------------------------------|
c-2p0----3p0----2p0----3p0----2p0----2p0----3p0------2--------|
f-----0------0------0-------0------0------0-------0------2--2-|
a--------------------------------------------------------0--0-|
d-------------------------------------------------------------|


7. STARRY EYES
Intro (riff 1) (Heavy Distrortion)
|--------------------------------------------------------------------|
|-9-------9---9---9---9---9---9---7-----7---7---7---7---7---7----9---|
|-9-------9---9---9---9---9---9---7-----7---7---7---7---7---7----9---|
|-9-------9---9---9---9---9---9---7-----7---7---7---7---7---7----9---|
|-7--7-7--7---7---7---7---7---7---5-5-5-5---5---5---5---5---5----7---|
|--------------------------------------------------------------------|

|---------------------------------------------------------------------|
|-----9---9---9---9---9---9---9---7------7---7---7---7---7---7---9----|
|-----9---9---9---9---9---9---9---7------7---7---7---7---7---7---9----|
|-----9---9---9---9---9---9---9---7------7---7---7---7---7---7---9----|
|-7-7-7---7---7---7---7---7---7---5--5-5-5---5---5---5---5---5---7----|
|---------------------------------------------------------------------|
Verse 1 (Riff 2)
|-----------------------------------------------------------------------|
|-9---9---9---7----7---7---7---9-----9---9---9---7-----7---7---7---9----|
|-9---9---9---7----7---7---7---9-----9---9---9---7-----7---7---7---9----|
|-9---9---9---7----7---7---7---9-----9---9---9---7-----7---7---7---9----|
|-7---7---7---5----5---5---5---7-----7---7---7---5-----5---5---5---7----|
|-----------------------------------------------------------------------|
                                         PM:----------------------------|
|-----------------------------------------------------------------------|
|-9---9---9---7----7---7---7---9----9---9---9---7-----------------------|
|-9---9---9---7----7---7---7---9----9---9---9---7-----------------------|
|-9---9---9---7----7---7---7---9----9---9---9---7---------7-7-7-7-7-7---|
|-7---7---7---5----5---5---5---7----7---7---7---5--X/////-5-5-5-5-5-5---|
|-----------------------------------------------------------------------|
Chorus (riff 3)
|--------------------------------------------------------------------|
|--------------------------------------------------------------------|
|----------------------5------------------------------5--------------|
|-7--5--7--5--7--5--7--3--5--7---5--7---5--7--5---7---3--5-----------|
|-5--3--5--3--5--3--5-----3--5---3--5---3--5--3---7------3-----------|
|--------------------------------------------------------------------|
riff 1
|--------------------------------------------------------------------|
|-9------9---9---9---9---9---9----7-----7---7---7---7---7---7----9---|
|-9------9---9---9---9---9---9----7-----7---7---7---7---7---7----9---|
|-9------9---9---9---9---9---9----7-----7---7---7---7---7---7----9---|
|-7--7---7---7---7---7---7---7----5-5-5-5---5---5---5---5---5----7---|
|--------------------------------------------------------------------|

|--------------------------------------------------------------------|
|-----9-----9---9---9---9---9---9---7-----7---7---7---7---7---7---9--|
|-----9-----9---9---9---9---9---9---7-----7---7---7---7---7---7---9--|
|-----9-----9---9---9---9---9---9---7-----7---7---7---7---7---7---9--|
|-7-7-7-----7---7---7---7---7---7---5-5-5-5---5---5---5---5---5---7--|
|--------------------------------------------------------------------|
Verse 2 (riff 2)
|----------------------------------------------------------------------|
|-9---9---9---7---7---7---7---9-----9---9---9---7-----7---7---7---9----|
|-9---9---9---7---7---7---7---9-----9---9---9---7-----7---7---7---9----|
|-9---9---9---7---7---7---7---9-----9---9---9---7-----7---7---7---9----|
|-7---7---7---5---5---5---5---7-----7---7---7---5-----5---5---5---7----|
|----------------------------------------------------------------------|
                                            PM:------------------------|
|----------------------------------------------------------------------|
|-9---9---9---7---7---7---7---9----9---9---9---7-----------------------|
|-9---9---9---7---7---7---7---9----9---9---9---7-----------------------|
|-9---9---9---7---7---7---7---9----9---9---9---7---------7-7-7-7-7-7---|
|-7---7---7---5---5---5---5---7----7---7---7---5--X/////-5-5-5-5-5-5---|
|----------------------------------------------------------------------|
Chorus (riff 3)
|-----------------------------------------------------------------------|
|-----------------------------------------------------------------------|
|-----------------------5-----------------------------5-----------------|
|-7--5--7---5--7--5--7--3--5--7---5--7--5--7--5---7---3----5------------|
|-5--3--5---3--5--3--5-----3--5---3--5--3--5--3---7--------3------------|
|-----------------------------------------------------------------------|
riff 4
|----------------------------------------------------------------------|
|----------------------------------------------------------------------|
|----------------------------------------------------------------------|
|----------------------------------------------------------------------|
|---------------7------------------7---------------------7-------------|
|-5--8--7--8--8---7--8--5--8--7--8---8--7--8--5--8--7--8---8--7--8-----|

|-----------------------------------------------------------------------|
|-----------------------------------------------------------------------|
|-----------------------------------------------------------------------|
|-----------------------------------------------------------------------|
|------------7---------------------7---------------------7--------------|
|-5--8--7--8---8--7--8--5--8--7--8---8--7--8--5--8--7--8---8---7--8-----|

|-----------------------------------------------------------------------|
|-----------------------------------------------------------------------|
|-----------------------------------------------------------------------|
|-----------------------------------------------------------------------|
|------------7----------------------7---------------------5-------------|
|-5--8--7--8---8--7--8---5--8--7--8---8--7--8--3--6--5--6---6--5---6----|

|----------------------------------------------------------------------|
|----------------------------------------------------------------------|
|----------------------------------------------------------------------|
|----------------------------------------------------------------------|
|------------5-----------------------7---------------------7-----------|
|-3--6--5--6---6--5--6---5--8--7---8---8--7--8--5--8--7--8---8--7---8--|

|----------------------------------------------------------------------|
|----------------------------------------------------------------------|
|----------------------------------------------------------------------|
|----------------------------------------------------------------------|
|------------5----------------------5---------------------7------------|
|-3--6--5--6---6--5--6---3--6--5--6---6--5--6--5--8--7--8---8--7---8---|

|----------------------------------------------------------------------|
|----------------------------------------------------------------------|
|----------------------------------------------------------------------|
|----------------------------------------------------------------------|
|--------------7-------------------------------------------------------|
|5---8---7---8---8---7---8---------------------------------------------|
Chorus (riff 3)
|----------------------------------------------------------------------|
|----------------------------------------------------------------------|
|-----------------------5-----------------------------5----------------|
|-7--5--7---5--7--5--7--3--5--7---5--7--5--7--5---7---3----5-----------|
|-5--3--5---3--5--3--5-----3--5---3--5--3--5--3---7--------3-----------|
|----------------------------------------------------------------------|
I havent tabbed the outro or solo yet and I'll do that when I get it figured out


8. TOO FAST FOR LOVE
drop D tuning- DGCFAD

PM -palm mute
NH -natural harmonics
p -pull off
h -hammer on

INTRO -x2 on all

play only once
 \/
---|--------------------------------------------|
---|--------------------------------------------|
-0-|-0--2p--0p--3p--0p--4h--0p--5h--0--6h7--6h7-|
-0-|--------------------------------------------|
---|--------------------------------------------|
---|--------------------------------------------|

---------------------------------------------|
---------------------------------------------|
---------------------------------------------|
-0---2p--0p--3p--0p--4p--0p--5p--0--6h7--6h7-|
---------------------------------------------|
---------------------------------------------|

---------------------------------------------|
---------------------------------------------|
---------------------------------------------|
---------------------------------------------|
-0---2p--0p--3p--0p--4p--0p--5p--0--6h7--6h7-|
---------------------------------------------|

---------------------------------------------|
---------------------------------------------|
---------------------------------------------|
---------------------------------------------|
---------------------------------------------|
-0---2p--0p--3p--0p--4p--0p--5p--0--6h7--6h7-|

---------------------------------------------|
---------------------------------------------|
---------------------------------------------|
---------------------------------------------|
-0---2p--0p--3p--0p--4p--0p--5p--0--6h7--6h7-|
---------------------------------------------|

VERSE
------------------------------------------------------------------------|
------------------------------------------------------------------------|
-9-9-9-9-9---9-9---9-9-9-9-9---9-9----9-9-9-9-9---9-9---9-9-9-9-9---9-9-|
-9-9-9-9-9---9-9---9-9-9-9-9---9-9----9-9-9-9-9---9-9---9-9-9-9-9---9-9-|
-7-7-7-7-7---7-7---7-7-7-7-7---7-7----7-7-7-7-7---7-7---7-7-7-7-7---7-7-|
------------------------------------------------------------------------|

-----------------------------------------------------------------------|
-----------------------------------------------------------------------|
-9-9-9-9-9---9-9---9-9-9-9-9---9-9-------------------------------------|
-9-9-9-9-9---9-9---9-9-9-9-9---9-9---6-6-6-6-6---6-6---6-6-6-6-6---6-6-|
-7-7-7-7-7---7-7---7-7-7-7-7---7-7---6-6-6-6-6---6-6---6-6-6-6-6---6-6-|
-------------------------------------4-4-4-4-4---4-4---4-4-4-4-4---4-4-|

------------------------------------------------------------------------|
------------------------------------------------------------------------|
-2-2--------2---2-2---2-2---------2---2-2---9-9-9-9-9---9-9---9-9-9-9-9-|
-2-2--------2---2-2---2-2---------2---2-2---9-9-9-9-9---9-9---9-9-9-9-9-|
-0-0--------0---0-0---0-0---------0---0-0---7-7-7-7-7---7-7---7-7-7-7-7-|
------4p0-------------------4p0-----------------------------------------|

-------------------------------------------------------|
-------------------------------------------------------|
-------------------------------------------------------|
-------------------------------------------------------|
-0-2p0-3-0h4-0-5p0-6h7-6h7---0-2p0-3-0h4-0-5p0-6h7-6h7-|
-------------------------------------------------------|

CHORUS - palm muted
-----------------------------------------------------------------------|
-----------------------------------------------------------------------|
-4-4-4-4-4-4-4-4---4-4-4-4-4-4-4-4---2-2-2-2-2-2-2-2---2-2-2-2-2-2-2-2-|
-4-4-4-4-4-4-4-4---4-4-4-4-4-4-4-4---2-2-2-2-2-2-2-2---2-2-2-2-2-2-2-2-|
-2-2-2-2-2-2-2-2---2-2-2-2-2-2-2-2---0-0-0-0-0-0-0-0---0-0-0-0-0-0-0-0-|
-----------------------------------------------------------------------|

------------------------------------------------------------------------|
------------------------------------------------------------------------|
-9-9-9-9-9-9-9-9---9-9-9-9-9-9-9-7--------------------------------------|
-9-9-9-9-9-9-9-9---9-9-9-9-9-9-9-7------------------------------------3-|
-7-7-7-7-7-7-7-7---7-7-7-7-7-7-7-5---5-5-4-4-2-2-0-0----------------0-1-|
------------------------------------------------------3-3-2-2-0-0-------|

-----------------------------------------------------------------------|
-----------------------------------------------------------------------|
-4-4-4-4-4-4-4-4---4-4-4-4-4-4-4-4---2-2-2-2-2-2-2-2---2-2-2-2-2-2-2-2-|
-4-4-4-4-4-4-4-4---4-4-4-4-4-4-4-4---2-2-2-2-2-2-2-2---2-2-2-2-2-2-2-2-|
-2-2-2-2-2-2-2-2---2-2-2-2-2-2-2-2---0-0-0-0-0-0-0-0---0-0-0-0-0-0-0-0-|
-----------------------------------------------------------------------|

-------------------------------------------------|
-------------------------------------------------|
-9-9-9-9-9-9-9-9---9-9-9-9-9-9-9-9-7---7---------|
-9-9-9-9-9-9-9-9---9-9-9-9-9-9-9-9-7---7---------|
-7-7-7-7-7-7-7-7---7-7-7-7-7-7-7-7-5---5------2/-|
-------------------------------------------------|

-------------------------------------------------------------------------|
-------------------------------------------------------------------------|
--7-----BASS FILL----------------------4-4-4-4-4-4-4-4---4-4-4-4-4-4-4-4-|
--7------------------------------------4-4-4-4-4-4-4-4---4-4-4-4-4-4-4-4-|
--5-------------------------------0-1--2-2-2-2-2-2-2-2---2-2-2-2-2-2-2-2-|
-------------------------------0-----------------------------------------|

-----------------------------------------------------------------------|
-----------------------------------------------------------------------|
-2-2-2-2-2-2-2-2---2-2-2-2-2-2-2-2---9-9-9-9-9-9-9-9---9-9-9-9-9-9-9-7-|
-2-2-2-2-2-2-2-2---2-2-2-2-2-2-2-2---9-9-9-9-9-9-9-9---9-9-9-9-9-9-9-7-|
-0-0-0-0-0-0-0-0---0-0-0-0-0-0-0-0---7-7-7-7-7-7-7-7---7-7-7-7-7-7-7-5-|
-----------------------------------------------------------------------|

-------------------------------------------------------------------------|
-------------------------------------------------------------------------|
--7-----DRUM FILL----------------------4-4-4-4-4-4-4-4---4-4-4-4-4-4-4-4-|
--7------------------------------------4-4-4-4-4-4-4-4---4-4-4-4-4-4-4-4-|
--5-------------------------------0-1--2-2-2-2-2-2-2-2---2-2-2-2-2-2-2-2-|
-------------------------------0-----------------------------------------|

-----------------------------------------------------------------------|
-----------------------------------------------------------------------|
-2-2-2-2-2-2-2-2---2-2-2-2-2-2-2-2---9-9-9-9-9-9-9-9---9-9-9-9-9-9-9-9-|
-2-2-2-2-2-2-2-2---2-2-2-2-2-2-2-2---9-9-9-9-9-9-9-9---9-9-9-9-9-9-9-9-|
-0-0-0-0-0-0-0-0---0-0-0-0-0-0-0-0---7-7-7-7-7-7-7-7---7-7-7-7-7-7-7-7-|
-----------------------------------------------------------------------|
                                                     NH~~|
------------------------------9---------------5-----------|
----------------------9-----8--------------5--------------|
--------------9-----8-----7--------------7----------------|
-----9------8-----7-------------------5-------------------|
---8-----7-------------------------4----------------0-0-1-|
-7--------------------------------------------------------|

-----------------------------------------------------------------------|
-----------------------------------------------------------------------|
-4-4-4-4-4-4-4-4---4-4-4-4-4-4-4-4---2-2-2-2-2-2-2-2---2-2-2-2-2-2-2-2-|
-4-4-4-4-4-4-4-4---4-4-4-4-4-4-4-4---2-2-2-2-2-2-2-2---2-2-2-2-2-2-2-2-|
-2-2-2-2-2-2-2-2---2-2-2-2-2-2-2-2---0-0-0-0-0-0-0-0---0-0-0-0-0-0-0-0-|
-----------------------------------------------------------------------|

repeat and fade
------------------------------------------------|
------------------------------------------------|
-9-9-9-9-9-9-9-9---9-9-9-9-9-9-9-7--7-----------|
-9-9-9-9-9-9-9-9---9-9-9-9-9-9-9-7--7-------0-1-|
-7-7-7-7-7-7-7-7---7-7-7-7-7-7-7-5--5-----0-----|
------------------------------------------------|


9. ON WITH THE SHOW
drop D tuning

h- hammer on
p- pull off
nh- natural harmonic
^- use bar
~- let ring
\- slide up
/- slide down
PM- palm mute

intro
---------------------------------------------------------------------|
---------------------------------------------------------------------|
-------------------13h14p13---------------------------14p13----------|
-----------14----------------14---------------14-------------14------|
-------14------14----------------14-------14------14-------------14--|
--12----------------------------------11-----------------------------|

----------------------------------------------------------------|
----------------------------------------------------------------|
-------------------9----------------------------8h9p8-----------|
-----------11---------11------11----------9------------9--------|
-------11------11---------11-----------9-----9------------9-----|
----9-------------------------------7---------------------------|

----------------------------------------|
--------------------------------2-------|
-----------6h7p6------------------2---2-|
------7----------7--------4---------4---|
----7---7----------7----4---4-----------|
--5-------------------2-----------------|

----------------------------------------------------|
----------------------------------------------------|
-------------8h9p8----------------------8h9p8-------|
-------9------------9-------------9------------9----|
----9-----9------------9-------9-----9------------9-|
--7-------------------------7-----------------------|

verse
--------------------------------------------------------|
--------------------------------------------------------|
--------------------13h14p13---------------14p13--------|
--------14------14-------------------14-----------14----|
-----14----14---------------------14----14-----------14-|
--12---------------------------11-----------------------|

-------------------------------------------------------------------|
-------------------------------------------------------------------|
--------------9----------------------8h9p8---------------6h7p6-----|
-------11--------11----11--------9---------9---------7---------7---|
----11----11--------11---------9---9---------9-----7---7---------7-|
--9-------------------------7--------------------5-----------------|

----------------------------------------|
-----------2----------------------------|
-------------2---2------------8h9p8-----|
------4--------4---------9----------9---|
----4---4--------------9---9----------9-|
--2------------------7------------------|

------------------------------------------------|
------------------------------------------------|
----------8h9p8------------------13h14p13-------|
------9---------9----------14-------------14----|
----9---9--------9------14----14-------------14-|
--7------------------12-------------------------|

------------------------------------------------|
------------------------------------------------|
--------------14p13-------------------9---------|
--------14----------14----------11------11---11-|
-----14----14----------14----11----11------11---|
--11-----------------------9--------------------|

--------------------------------------|
--------------------------------------|
----------8h9p8-----------------------|
------9---------9-------7-----4-----9-|
----9---9--------9------7-----4-----9-|
--7---------------------5-----2-----7-|

----------------------------------------------|
----------------------------------------------|
-------------------------------13h14p13-------|
-------------------------14-------------14----|
--2------\14~~--------14----14-------------14-|
-------------------12-------------------------|

------------------------------------------------|
------------------------------------------------|
--------------14p13-------------------9---------|
--------14----------14----------11------11---11-|
-----14----14----------14----11----11------11---|
--11-----------------------9--------------------|

----------------------------------------------------------|
----------------------------------------------------------|
----------8h9p8-------------------------------------------|
------9---------9-------7---------------------------------|
----9---9---------9-----7-------------2------2------\14~~-|
--7---------------------5--2--0--2--5---5--2--------------|

chorus      PM-----------|            PM-----------|            PM--------------|
--------------------------------------------------------------------------------|
--------------------------------------------------------------------------------|
--------------------------------------------------------------------------------|
--14--------14--14--14--14----13------13--13--13--13--------11----11--11-11-11--|
--14--------14--14--14--14----11------11--11--11--11--------11----11--11-11-11--|
--12--------12--12--12--12----11------11--11--11--11---------9-----9---9-9--9---|

           PM------------------------------------------------------------------|
-------------------------------------------------------------------------------|
-------------------------------------------------------------------------------|
-------------------------------------------------------------------------------|
--9--------9--9--9--9--9----7--------------------------------------------------|
--9--------9--9--9--9--9----7-----------------2---------2-------\14^--14^--14--|
--7--------7--7--7--7--7----5------2--0--2--5---5--2---------------------------|

           PM-----------|               PM--------------|
--------------------------------------------------------|
--------------------------------------------------------|
--------------------------------------------------------|
--13--------13--13--13--13----11--------11--11--11--11--|
--11--------11--11--11--11----11--------11--11--11--11--|
--11--------11--11--11--11----9---------9---9---9---9---|

        PM--------------------------------------------------------------------|
------------------------------------------------------------------------------|
------------------------------------------------------------------------------|
------------------------------------------------------------------------------|
---9-----9--9--9--9--9----7---------------------------------------------------|
---9-----9--9--9--9--9----7-------------------2--------2^------2--------\14^--|
---7-----7--7--7--7--7----5--------2--0--2--5---5--2--------------------------|

solo        nh
-----------------------------------------------------------------------------|
-----------------------------------------------------------------------------|
--11^--11p9--11--11p9--------------------------------------------------------|
-----------------------11^--11--10--8----------------------------------------|
---------------------------------------11--10----8--7--5--7^--7p5------------|
-------------------------------------------------------------------7~~--5~~--|

-9h12p9h12p9--------------------------------------------------------------------|
---------------9h12p9h12--------------------------------------------------------|
---------------------------9h11p9h11p9------------------------------------------|
----------------------------------------9h11p9h11p9-----------------------------|
----------------------------------------------------9h11p9h11p9---9^--9p7--9^\--|
--------------------------------------------------------------------------------|

-----------------------------------------------|
-----------------------------------------------|
--4h6p4------h6p4--6h8p6h8p6--8h10p8h10p8--11^-|
-----------------------------------------------|
-----------------------------------------------|
-----------------------------------------------|

verse
-------------------------------------------------------------------------|
-------------------------------------------------------------------------|
--------------13h14p13-------------------14p13------------------9--------|
--------14-------------14----------14-----------14---------11-----11--11-|
-----14----14-------------14-----14---14-----------14----11--11-----11---|
--12--------------------------11-----------------------9-----------------|

---------------------------|
---------------------------|
----------8h9p8------------|
------9---------9--------7-|
----9---9---------9----7---|
--7------------------5-----|

--------------------------------------------------------------|
--------------------------------------------------------------|
------------------------------------------------14h14p13------|
--4--------9------------------------------14-------------14---|
--4--------9---------2------\14~~~------14--14-------------14-|
--2--------7--------------------------12----------------------|

----------------------------------------------|
----------------------------------------------|
---------------14p13-----------------9--------|
---------14----------14---------11-----11--11-|
------14----14----------14----11--11-----11---|
---11-----------------------9-----------------|

--------------------------------------------------------------------------------|
--------------------------------------------------------------------------------|
-----------8h9p8----------------------------------------------------------------|
------9----------9------7-------4------9----------------------------------------|
----9---9----------9----7-------4------9--------------2--------2----------\14~~-|
--7---------------------5-------2------7---2--0--2--5---5--2--------------------|

chorus       PM-----------|             PM---------------|
---------------------------------------------------------|
---------------------------------------------------------|
---------------------------------------------------------|
---14--------14--14--14--14----13--------13--13--13--13--|
---14--------14--14--14--14----11--------11--11--11--11--|
---12--------12--12--12--12----11--------11--11--11--11--|

          PM-----------|            PM------------------------------------------|
--------------------------------------------------------------------------------|
--------------------------------------------------------------------------------|
--------------------------------------------------------------------------------|
--11------11--11--11--11----9--------9--9--9--9--9----7-------------------------|
--11------11--11--11--11----9--------9--9--9--9--9----7----------------2--------|
--9-------9---9---9---9-----7--------7--7--7--7--7----5-----2--0--2--5----5--2--|

-------------------------|
-------------------------|
-------------------------|
-------------------------|
--2^--2^---2------\14~~~-|
-------------------------|

chorus   PM-----------|             PM-----------|               PM--------------|
---------------------------------------------------------------------------------|
---------------------------------------------------------------------------------|
---------------------------------------------------------------------------------|
--14-----14--14--14--14----13--------13--13--13--13----11--------11--11--11--11--|
--14-----14--14--14--14----11--------11--11--11--11----11--------11--11--11--11--|
--12-----12--12--12--12----11--------11--11--11--11----9---------9---9----9---9--|

           PM--------------------------------------------------------------|
---------------------------------------------------------------------------|
---------------------------------------------------------------------------|
---------------------------------------------------------------------------|
--9--------9--9--9--9--9----7----------------------------------------------|
--9--------9--9--9--9--9----7----------------2--------2^--2^--------\14~~--|
--7--------7--7--7--7--7----5-----2--0--2--5---5--2------------------------|

----------------------------------------------------|
----------------------------------------------------|
----------------------------------------------------|
--------------6-------------------------------------|
--7-----7--9-----6----6--7--9----4----4h6p4-----2~~-|
----------------------------------------------------|

--9h12--9h12p9h12p9--------------------------------------------------|
--------------------9h12p9h12----------------------------------------|
-------------------------------9h11p9h11p9---------------------------|
--------------------------------------------9h11p9h11p9--------------|
---------------------------------------------------------9h11p9h11p9-|
---------------------------------------------------------------------|

-----------------------------------------------------------------------|
-----------------------------------------------------------------------|
-----------------4h6p4h6p4--6h8p6h8p6--8h10p8h10p8--11^----------------|
------------------------------------------------------------11--10-----|
--9^--9p7--9^\---------------------------------------------------------|
-----------------------------------------------------------------------|
                         nh
--------------------------------------------------9h12p9h12p9-----------|
---------------------------------------------------------------9h12-----|
------------------------------------------------------------------------|
---8--------------------------------------------------------------------|
------11--10-----8--7--5--7--7p5----------------------------------------|
-----------------------------------7~~~--5~~~---------------------------|

-----------------------------------------------------------------------|
---p9h12---------------------------------------------------------------|
----------9h11p9h11p9--------------------------------------------------|
-----------------------9h11p9h11p9-------------------------------------|
------------------------------------9h11p9h11p9-----9^--9p7--9^\-------|
-----------------------------------------------------------------------|

------------------------------------------|
------------------------------------------|
---4h6p4h6p4--6h8p6h8p6--8h10p8h10p8--11^-|
------------------------------------------|
------------------------------------------|
------------------------------------------|

verse
---------------------------------------------------------------------|
---------------------------------------------------------------------|
-----------13h14p13-------------------14p13-----------------9--------|
------14------------14----------14----------14--------11------11--11-|
----14--14------------14-----14----14----------14---11---11-----11---|
--12----------------------11-----------------------9-----------------|

-------------------------------------------|
-------------------------------------------|
-------------8h9p8---------------6h7p6-----|
--------9----------9--------7----------7---|
-----9-----9---------9----7---7----------7-|
--7---------------------5------------------|

-----------------------------------------|
-----------2-----------------------------|
-------------2---2------------8h9p8------|
------4--------4---------9----------9----|
----4---4--------------9---9----------9--|
--2------------------7-------------------|

------------------------------------------------|
------------------------------------------------|
-----------8h9p8-----------------13h14p13-------|
------9----------9---------14-------------14----|
----9---9----------9----14----14-------------14-|
--7-------------------12------------------------|

-------------------------------------------------|
-------------------------------------------------|
---------------14p13--------------------9--------|
--------14-----------14----------11-------11--11-|
-----14----14-----------14----11----11------11---|
--11------------------------9--------------------|

---------------------------------------------|
---------------------------------------------|
-----------8h9p8-----------------------------|
------9----------9------7--------4---------9-|
----9---9---------9-----7--------4---------7-|
--7---------------------5--------2---------7-|

------------------------------|
------------------------------|
------------------------------|
------------------------------|
--2^--2------\14^--14^--14~~~-|
------------------------------|

chorus     PM-----------|             PM-----------------|
---------------------------------------------------------|
---------------------------------------------------------|
---------------------------------------------------------|
---14--------14--14--14--14----13--------13--13--13--13--|
---14--------14--14--14--14----11--------11--11--11--11--|
---12--------12--12--12--12----11--------11--11--11--11--|

           PM-----------|          PM----------------------------------------|
-----------------------------------------------------------------------------|
-----------------------------------------------------------------------------|
-----------------------------------------------------------------------------|
--11------11--11--11--11----9--------9--9--9--9----7-------------------------|
--11------11--11--11--11----9--------9--9--9--9----7-----------------2-------|
--9--------9--9---9---9-----7--------7--7--7--7----5------2--0--2--5---5--2--|

                                         PM--------------|
---------------------------------------------------------|
---------------------------------------------------------|
---------------------------------------------------------|
-------------------------------14--------14--14--14--14--|
--2^--2^--2---\14^--14^--14----14--------14--14--14--14--|
-------------------------------12--------12--12--12--12--|

            PM-----------|              PM--------------|
--------------------------------------------------------|
--------------------------------------------------------|
--------------------------------------------------------|
--13--------13--13--13--13----11--------11--11--11--11--|
--11--------11--11--11--11----11--------11--11--11--11--|
--11--------11--11--11--11----9---------9---9---9---9---|

          PM-------------------------------------------|
-------------------------------------------------------|
-------------------------------------------------------|
-------------------------------------------------------|
--9--------9--9--9--9--9----7--------------------------|
--9--------9--9--9--9--9----7-----------------2--------|
--7--------7--7--7--7--7----5-----2--0--2--5-----5--2--|

                                         PM--------------|
---------------------------------------------------------|
---------------------------------------------------------|
---------------------------------------------------------|
-------------------------------14--------14--14--14--14--|
--2^--2^--2---\14^--14^--14----14--------14--14--14--14--|
-------------------------------12--------12--12--12--12--|

         PM-----------|                PM-----------|           PM-------------|
-------------------------------------------------------------------------------|
-------------------------------------------------------------------------------|
-------------------------------------------------------------------------------|
--13-------13--13--13--13----11--------11--11--11--11----9--------9--9--9--9---|
--11-------11--11--11--11----11--------11--11--11--11----9--------9--9--9--9---|
--11-------11--11--11--11----9---------9---9---9---9-----7--------7--7--7--7---|

--------------------------------------------------------|
--------------------------------------------------------|
--------------------------------------------------------|
--7-----------------------------------------------------|
--7----------------2----------2^--2^--2---\14^--14^--14-|
--5-----2--0--2--5----5--2------------------------------|

           PM-----------|               PM--------------|
--------------------------------------------------------|
--------------------------------------------------------|
--------------------------------------------------------|
--14--------14--14--14--14----13--------13--13--13--13--|
--14--------14--14--14--14----11--------11--11--11--13--|
--12--------12--12--12--12----11--------11--11--11--11--|

             PM-----------|           PM----------------|
--------------------------------------------------------|
--------------------------------------------------------|
--------------------------------------------------------|
--11--------11--11--11--11----9--------9--9--9--9----7--|
--11--------11--11--11--11----9--------9--9--9--9----7--|
--9---------9---9---9---9-----7--------7--7--7--7----5--|

------------------------------------------------------|
------------------------------------------------------|
------------------------------------------------------|
------------------------9--------9---------9--------9-|
-------------2----------9--------9---------9--------9-|
--2--0--2--5---5--2-----7--------7---------7--------7-|

-------------------------------------------|
-------------------------------------------|
-------------------------------------------|
--9--------9----------14-------------14----|
--9--------9----------14-------------14--\-|
--7--------7----------12-------------12--\-|


10. TOAST OF THE TOWN
PM- palm mute
/- dive with bar
~- let ring
h- hammer on

d tuning- dafcgd
intro
                                                    PM----|
d-------------------------------------------------------------------------|
a---------------8-7----------------8-7----------------------------8-7-----|
f---------------7-7----------------7-7----------------------------7-7-----|
c-----------7~--7-7------------7~--7-7------------7-7-7-7-7-------7-7-----|
g--2--------7~--------2--------7~--------2--------7-7-7-7-7--0-\\\\/------|
d--0--2--3--5~--------0--2--3--5~--------0--2--3--5-5-5-5-5---------------|

              PM----|
d--------------------------|
a----------------------8-7-|
f----------------------7-7-|
c-----------7-7-7-7-7--7-7-|
g--2--------7-7-7-7-7------|
d--0--2--3--5-5-5-5-5------|

verse
d-------------------------------------------------------------------------|
a-------------------------------------------------------------------------|
f-------------------------------------------------------------------------|
c-----------7-7-7-7--2-2-2-2--7-7-7-7--2-2-2-2-----------7-7-7-7--2-2-2-2-|
g--2--------7-7-7-7--2-2-2-2--7-7-7-7--2-2-2-2--2--------7-7-7-7--2-2-2-2-|
d--0--2--3--5-5-5-5--0-0-0-0--5-5-5-5--0-0-0-0--0--2--3--5-5-5-5--0-0-0-0-|

d------------------|
a------------------|
f------------------|
c--4-4-4-4-4-4-4-4-|
g--4-4-4-4-4-4-4-4-|
d--2-2-2-2-2-2-2-2-|

pre chorus
d--------------------------------------------------------|
a--------------------------------------------------------|
f------------------------9-9-------------------------9-9-|
c--12-12--11--9--7--2-2--9-9---12-12--11--9--7--2-2--9-9-|
g--12-12--11--9--7--2-2--7-7---12-12--11--9--7--2-2--7-7-|
d--10-10--9---7--5--0-0--------10-10--9---7--5--0-0------|

d-----------------------------------|
a-----------------------------------|
f-----------------------------------|
c--12-12--11--9--7--2-2-2-2-2-2-2-2-|
g--12-12--11--9--7--2-2-2-2-2-2-2-2-|
d--10-10--9---7--5--0-0-0-0-0-0-0-0-|


chorus
               PM----|
d------------------------------------------------|
a------------------------------------------------|
f--2-2---9--7--7-7-7-7---11-11-------------------|
c--2-2---9--7--7-7-7-7---11-11--12--14-14--16-16-|
g--0-0---7--5--5-5-5-5---9--9---12--14-14--16-16-|
d-------------------------------10--12-12--14-14-|

               PM----|
d-----------------------------------------|
a-----------------------------------------|
f--2-2---9--7--7-7-7-7---11-11------------|
c--2-2---9--7--7-7-7-7---11-11--12--14-14-|
g--0-0---7--5--5-5-5-5---9--9---12--14-14-|
d-------------------------------10--12-12-|

intro again                       PM---|
d---------------------------------------------|
a---------------8-7-----------------------8-7-|
f---------------7-7-----------------------7-7-|
c-----------7~--7-7------------7-7-7-7-7--7-7-|
g--2--------7~--------2--------7-7-7-7-7------|
d--0--2--3--5~--------0--2--3--5-5-5-5-5------|

verse
d-------------------------------------------------------------------------|
a-------------------------------------------------------------------------|
f-------------------------------------------------------------------------|
c-----------7-7-7-7--2-2-2-2--7-7-7-7--2-2-2-2-----------7-7-7-7--2-2-2-2-|
g--2--------7-7-7-7--2-2-2-2--7-7-7-7--2-2-2-2--2--------7-7-7-7--2-2-2-2-|
d--0--2--3--5-5-5-5--0-0-0-0--5-5-5-5--0-0-0-0--0--2--3--5-5-5-5--0-0-0-0-|

d------------------|
a------------------|
f------------------|
c--4-4-4-4-4-4-4-4-|
g--4-4-4-4-4-4-4-4-|
d--2-2-2-2-2-2-2-2-|

pre chorus
d--------------------------------------------------------|
a--------------------------------------------------------|
f------------------------9-9-------------------------9-9-|
c--12-12--11--9--7--2-2--9-9---12-12--11--9--7--2-2--9-9-|
g--12-12--11--9--7--2-2--7-7---12-12--11--9--7--2-2--7-7-|
d--10-10--9---7--5--0-0--------10-10--9---7--5--0-0------|

d-----------------------------------|
a-----------------------------------|
f-----------------------------------|
c--12-12--11--9--7--2-2-2-2-2-2-2-2-|
g--12-12--11--9--7--2-2-2-2-2-2-2-2-|
d--10-10--9---7--5--0-0-0-0-0-0-0-0-|

chorus
               PM----|
d------------------------------------------------|
a------------------------------------------------|
f--2-2---9--7--7-7-7-7---11-11-------------------|
c--2-2---9--7--7-7-7-7---11-11--12--14-14--16-16-|
g--0-0---7--5--5-5-5-5---9--9---12--14-14--16-16-|
d-------------------------------10--12-12--14-14-|

               PM----|
d---------------------------------------------|
a---------------------------------------------|
f--2-2---9--7--7-7-7-7---11-11----------------|
c--2-2---9--7--7-7-7-7---11-11--12--14-14--16-|
g--0-0---7--5--5-5-5-5---9--9---12--14-14--16-|
d-------------------------------10--12-12--14-|

interlude
d----------------------------------------------|
a----------------------------------------------|
f--2-2--5-5-------------2-2--5-5-------7-7-----|
c--2-2--5-5--5-5--------2-2--5-5--5-5--7-7-----|
g--0-0--3-3--5-5--0-\\\\/--0-0--3-3--5-5--5-5--|
d------------3-3------------------3-3----------|

d--------------------------------------------------------------|
a--------------------------------------------------------------|
f--2-2--5-5-------12h14h15-15h17h18-17h19h20----5-5------------|
c--2-2--5-5--5-5--------------------------------5-5--2--5--7-7-|
g--0-0--3-3--5-5--------------------------------3-3--2--5--7-7-|
d------------3-3-------------------------------------0--3--5-5-|

d------------------------|
a------------------------|
f------------------------|
c--2-5-7---2-5-7---2-5-7-|
g--2-5-7---2-5-7---2-5-7-|
d--0-3-5---0-3-5---0-3-5-|

   PM----|
d-------------------|
a-------------------|
f-------------------|
c--2-2-2-2--2-2-2-2-|
g--2-2-2-2--2-2-2-2-|
d--0-0-0-0--0-0-0-0-|


SOLO- chorus played underneath


chorus- under solo
               PM----|
d-------------------------------------------------|
a-------------------------------------------------|
f--2-2---9--7--7-7-7-7---11-11--------------------|
c--2-2---9--7--7-7-7-7---11-11---12--14-14--16-16-|
g--0-0---7--5--5-5-5-5---9--9----12--14-14--16-16-|
d--------------------------------10--12-12--14-14-|

               PM----|
d-------------------------------------------------|
a-------------------------------------------------|
f--2-2---9--7--7-7-7-7---11-11--------------------|
c--2-2---9--7--7-7-7-7---11-11---12--14-14--16-16-|
g--0-0---7--5--5-5-5-5---9--9----12--14-14--16-16-|
d--------------------------------10--12-12--14-14-|

               PM----|
d------------------------------------------------|
a------------------------------------------------|
f--2-2---9--7--7-7-7-7---11-11-------------------|
c--2-2---9--7--7-7-7-7---11-11--12--14-14--16-16-|
g--0-0---7--5--5-5-5-5---9--9---12--14-14--16-16-|
d-------------------------------10--12-12--14-14-|

               PM----|
d------------------------------------------------|
a------------------------------------------------|
f--2-2---9--7--7-7-7-7---11-11-------------------|
c--2-2---9--7--7-7-7-7---11-11--12--14-14--16-16-|
g--0-0---7--5--5-5-5-5---9--9---12--14-14--16-16-|
d-------------------------------10--12-12--14-14-|


outro chorus

                 PM----|
d------------------------------------------------------|
a------------------------------------------------------|
f--2-2-2---9--7--7-7-7-7---11-11-11--------------------|
c--2-2-2---9--7--7-7-7-7---11-11-11---12--14-14--16-16-|
g--0-0-0---7--5--5-5-5-5---9--9--9----12--14-14--16-16-|
d-------------------------------------10--12-12--14-14-|

                 PM----|
d------------------------------------------------------|
a------------------------------------------------------|
f--2-2-2---9--7--7-7-7-7---11-11-11--------------------|
c--2-2-2---9--7--7-7-7-7---11-11-11---12--14-14--16-16-|
g--0-0-0---7--5--5-5-5-5---9--9--9----12--14-14--16-16-|
d-------------------------------------10--12-12--14-14-|

               PM----|
d------------------------------------------------|
a------------------------------------------------|
f--2-2---9--7--7-7-7-7---11-11-------------------|
c--2-2---9--7--7-7-7-7---11-11--12--14-14--16-16-|
g--0-0---7--5--5-5-5-5---9--9---12--14-14--16-16-|
d-------------------------------10--12-12--14-14-|

               PM----|
d------------------------------------------------|
a------------------------------------------------|
f--2-2---9--7--7-7-7-7---11-11-------------------|
c--2-2---9--7--7-7-7-7---11-11--12--14-14--16-16-|
g--0-0---7--5--5-5-5-5---9--9---12--14-14--16-16-|
d-------------------------------10--12-12--14-14-|

               PM----|
d------------------------------------------------|
a------------------------------------------------|
f--2-2---9--7--7-7-7-7---11-11-------------------|
c--2-2---9--7--7-7-7-7---11-11--12--14-14--16-16-|
g--0-0---7--5--5-5-5-5---9--9---12--14-14--16-16-|
d-------------------------------10--12-12--14-14-|

               PM----|
d-----------------------------------------|
a-----------------------------------------|
f--2-2---9--7--7-7-7-7---11-11------------|
c--2-2---9--7--7-7-7-7---11-11--12--14-14-|
g--0-0---7--5--5-5-5-5---9--9---12--14-14-|
d-------------------------------10--12-12-|

                                 PM-----|
d----------------------------------------|
a---------------8-7----------------------|
f---------------7-7----------------------|
c-----------7~--7-7------------7-7-7-7-7-|
g--2--------7~--------2--------7-7-7-7-7-|
d--0--2--3--5~--------0--2--3--5-5-5-5-5-|


11. TONIGHT (WE NEED A LOVER)
A little iffy on the chord positions, but the chords are correct!
 - G#, A/B, F#/A#, F#/B# -

intro- x4

  E     B/D#  C#m  emaj7/b  A  Asus2
e--4----2-2----0----4-4-----0---0-|
b--0----0-0----5----4-4-----2---0-|
g--4----4-4----6----4-4-----2---2-|
d--2----1-1----6----2-2-----2---2-|
a--------------4----2-2-----0---0-|
e---------------------------------|

verse

"when you smiled at me and i saw your eyes"

  E       B/D#    C#m        B     A
e--4------2-------0----------------0--------|
b----0-----0--------5--------4-------2------|
g-----4------4--------6-------4--------2----|
d------2-------1--------6------4---------2--|
a-------------------------4-----2---------0-|
e-------------------------------------------|

"all i ever wanted to be, was in your arms tonight"

   G#    F#      A   A/B    E  A  E
e----------------0----------4--0--4-|
b----------------2----------0--2--0-|
g----------------2----------4--2--4-|
d----------------2----------2--2--2-|
a----------------0-------------0----|
e-----------------------------------|

"you looked to young to know about romance"

  G#            C#m      B   A    B    E  A  E
e----------------0-----------0---------4--0--4-|
b----------------5-------4---2----4----0--2--0-|
g----------------6-------4---2----4----4--2--4-|
d----------------6-------4---2----4----2--2--2-|
a----------------4-------2---0----2-------0----|
e----------------------------------------------|

"but you smiled i had to take a chance"
 G#      C#m     F#/A#     B   G#/B# C#m  E7/D
e---------0---------------------------0-------|
b---------5----------------4----------5-------|
g---------6----------------4----------6-------|
d---------6----------------4----------6-------|
a---------4----------------2----------4-------|
e---------------------------------------------|

chorus
"tonight,ill be with you tonight

   A      B      E  A  E
e--0-------------4--0--4-|
b--2------4------0--2--0-|
g--2------4------4--2--4-|
d--2------4------2--2--2-|
a--0------2---------0----|
e------------------------|

"tonight,ill love you through the night"

   A     B         E   A
e--0---------------4---0-|
b--2-----4---------0---2-|
g--2-----4---------4---2-|
d--2-----4---------2---2-|
a--0-----2-------------0-|
e------------------------|


C#m    F#
Whoa, baby
	[1:   to bridge]
	[2,3: Bsus4  B]
	    Tonight

bridge

B                              A      B
Tonight  I'll make ...
	                              A      B
	Bop-um-doo-dom-om-mop...
	                              A
	You're gonna ....
	         B
	Well, ....

	(4-bar guitar solo over B chord)

	E       Esus4
	/ / / /   / / / /

[repeat chorus]

Verse 2:

	I don't know ....

[repeat chorus]

coda
         E     B/D#             C#m            Emaj7/B  A  Asus2
well tonight Won't you let me ...
well tonight I just want to ...
well tonight Let me feel the ...
well tonight Come on, come on, ....
         E [N.C.]
well tonight


12. TOO FAST FOR LOVE (ALT. INTRO)

havn't tabbed the intro but the rest of the song is the same as the first TOO FAST FOR LOVE! OK.


13. STICK TO YOUR GUNS
PM- palm mute
b- bend
p - pull off
h- hammer on
r- release
/- slide down
\- slide up

I think this is pretty much right.

intro
|-------------------------------------------------------------|
|-------------------------------------------------------------|
|-------------------------------------------------------------|
|-------------------------------------------------------------|
|-----5--4--5-----5--5-4-4-5---------5--4--5-----5--5-4-4-5---|
|--0----------2--------------0--2------------2--------------0-|

|-------------------------------------------|
|-------------------------------------------|
|-------------------------------------------|
|-------------------------------------------|
|----5--4--5-----5--5-4-4-5-------5--4--5---|
|-2----------2--------------0--2----------2-|

|----------------------------------------------------------|
|----------------------------------------------------------|
|----------------------------------------------------------|
|----------------------------------------------------------|
|----5--4--5-----5--5-4-4-5-------5--4--5-----5--5-4-4-5---|
|-0----------2--------------0--2----------2--------------0-|

                                <-palm muted->
|-------------------------------------------------------------------|
|-------------------------------------------------------------------|
|-------------------------------------------------------------------|
|--------------------------------------7--8--9----9-----9-----------|
|----5--4--5-----5--5-4-4-5-------5----5--6--7--7-7-7-7-7-7-7-7-7-7-|
|-2----------2--------------0--2------------------------------------|

                      PM   PM   PM
|-----------------------------------------|
|-----------------------------------------|
|-----------------------------------------|
|-9------9\---7-8--9----9-----9-----------|
|-7-7-7--7\---5-6--7--7-7-7-7-7-7-7-7-7-7-|
|-----------------------------------------|

     PM               PM  PM    PM
|--------------------------------------------------------|
|--------------------------------------------------------|
|--------------------------------------------------------|
|-9------9\---7-8--9----9-----9------------9-----9--7--9-|
|-7--7-7-7\---5-6--7--7-7-7-7-7-7-7-7-7-7--7-7-7-7--5--7-|
|--------------------------------------------------------|

           PM     PM                           PM      PM      PM
|------------------------------------------------------------------------|
|------------------------------------------------------------------------|
|------------------------------------------------------------------------|
|-7--7---7-----7------7--------7------7--7---7-----7-------7-------7-7-8-|
|-5--5---5-5-5-5--5-5-5----5-5-5------5--5---5-5-5-5--5-5--5---5-5-5-5-6-|
|--------------------------------2-3-------------------------------------|

    PM   PM    PM
|--------------------------------------|
|--------------------------------------|
|--------------------------------------|
|-9----9-----9------------9-----9-9\---|
|-7--7-7-7-7-7-7-7-7-7-7--7-7-7-7-7\---|
|--------------------------------------|

|---------------------------|
|---------------------------|
|-9-----8--9----------------|
|-9-----9--9-----7-------7--|
|-7-----7--7-----7-------7--|
|-7-----7--7-----5-------5--|

                        PM    PM    PM    PM
|-------------------------------------------------|
|-------------------------------------------------|
|-5--5--------------------------------------------|
|-5--5---------7----------------------------------|
|-3--3---------7------7-----7-----7-----7-----7\--|
|-3--3---------5------5-5-5-5-5-5-5-5-5-5-5-5-5\--|

|-----------------------------|
|-----------------------------|
|-----------------------------|
|-----------------------------|
|----5--4--5-------5--4-4-5---|
|-0----------2--------------0-|

|----------------------------------------------|
|----------------------------------------------|
|----------------------------------------------|
|----------------------------------------------|
|----5--4--5--------5--5-4-4-5-------5--4--5---|
|-2----------2-----------------0--2----------2-|

|-------------------------------------------------------------|
|-------------------------------------------------------------|
|-------------------------------------------------------------|
|-------------------------------------------------------------|
|--5--5-4-4-5-------5--4--5--------5--5-4-4-5-------5--4--5---|
|-------------0--2----------2-----------------0--2----------2-|

|----------------------------------------------------------|
|----------------------------------------------------------|
|----------------------------------------------------------|
|----------------------------------------------------------|
|--5--5-4-4-5-------5--4--5-----5--5-4-4-5-------5--4--5---|
|-------------0--2----------2--------------0--2----------2-|

|-----------------------------|
|-----------------------------|
|-----------------------------|
|-------------------------7-8-|
|--5--5-4-4-5-------5-----5-6-|
|-------------0--2------------|

     PM  PM    PM           PM               PM   PM     PM
|------------------------|----------------|------------------------|
|------------------------|----------------|------------------------|
|------------------------|----------------|------------------------|
|-9----9-----9-----------|-9-----9\---7-8-|-9----9-----9-----------|
|-7--7-7-7-7-7-7-7-7-7-7-|-7-7-7-7\---5-6-|-7--7-7-7-7-7-7-7-7-7-7-|
|------------------------|----------------|------------------------|

    PM               PM   PM      PM
|-------------------------------------------|
|-------------------------------------------|
|-------------------------------------------|
|-9-----9\---7-8--9----9-----9--------------|
|-7-7-7-7\---5-6--7--7-7-7-7-7-7-7-7-7-7----|
|-------------------------------------------|

                           PM   PM
|---------------------------------------------------|
|---------------------------------------------------|
|---------------------------------------------------|
|-9-----9--7--9--7--7---7-----7-------7-------7-----|
|-7-7-7-7--5--7--5--5---5-5-5-5-5-5---5---5-5-5-----|
|-----------------------------------------------2-3-|

           PM     PM     PM
|-----------------------------------|
|-----------------------------------|
|-----------------------------------|
|-7--7---7-----7------7-------7-7-8-|
|-5--5---5-5-5-5--5-5-5---5-5-5-5-6-|
|-----------------------------------|

          PM    PM           PM
|-------------------------------------|
|-------------------------------------|
|-------------------------------------|
|-9----9-----9-----------9------9-9\--|
|-7--7-7-7-7-7-7-7-7-7-7-7--7-7-7-7\--|
|-------------------------------------|

|------------------------------|
|------------------------------|
|-9--------8--9----------------|
|-9--------9--9-----7-------7--|
|-7--------7--7-----7-------7--|
|-7--------7--7-----5-------5--|

                       PM    PM    PM    PM|
|------------------------------------------------|
|------------------------------------------------|
|-5------5---------------------------------------|
|-5------5-----7---------------------------------|
|-3------3-----7-----7-----7-----7------7-----7\-|
|-3------3-----5-----5-5-5-5-5-5-5-5--5-5-5-5-5\-|

|----------------------------|
|----------------------------|
|----------------------------|
|----------------------------|
|----5--4--5----5--5-4-4-5---|
|-0----------2-------------0-|

|-------------------------------------------|
|-------------------------------------------|
|-------------------------------------------|
|-------------------------------------------|
|----5--4--5-----5--5-4-4-5-------5--4--5---|
|-2----------2--------------0--2----------2-|

|-----------------------------------------------------------|
|-----------------------------------------------------------|
|-----------------------------------------------------------|
|-----------------------------------------------------------|
|--5--5-4-4-5-------5--4--5------5--5-4-4-5-------5--4--5---|
|-------------0--2----------2---------------0--2----------2-|

|------------------------------------------------------------|
|------------------------------------------------------------|
|------------------------------------------------------------|
|------------------------------------------------------------|
|--5--5-4-4-5-------5--4--5-------5--5-4-4-5-------5--4--5---|
|-------------0--2----------2----------------0--2----------2-|

|----------------------------------------------------------|
|----------------------------------------------------------|
|------------/9--9--9-9-9-9\-----------/9--9--9--9-9-9-9\--|
|------------/9--9--9-9-9-9\-----------/9--9--9--9-9-9-9\--|
|------------/7--7--7-7-7-7\-----------/7--7--7--7-7-7-7\--|
|----------------------------------------------------------|

|--------------------------------------------------------------|
|--------------------------------------------------------------|
|-----------/9--9--9--9-9-9-9\-------------/9--9--9--9-9-9-9\--|
|-----------/9--9--9--9-9-9-9\-------------/9--9--9--9-9-9-9\--|
|-----------/7--7--7--7-7-7-7\-------------/7--7--7--7-7-7-7\--|
|--------------------------------------------------------------|


                                            PM  PM
|-14pb16r-------------------------------------------|
|---------------------------------------------------|
|-----------------7-9--9-10--10-12--12\-------------|
|-----------------7-9--9-10--10-12--12\-------------|
|-----------------5-7--7--8---8-10--10\-------------|
|--------------------------------------------0-0-0--|

                           PM
|--------------------------------|
|--------------------------------|
|-7-9--9-10--5-7--7\-------------|
|-7-9--9-10--5-7--7\-------------|
|-5-7--7--8--3-5--5\-------------|
|-------------------------0-0-0--|

|-11b13r11-9----9------------------------|
|------------11---11-11-9----9-----------|
|--------------------------10---10-12-10-|
|----------------------------------------|
|----------------------------------------|
|----------------------------------------|

|-----------------------------------------------|
|-----------------------------------------------|
|----10-----------------------------------------|
|-12----12-12-10----10--------------------------|
|----------------12----12-12-10----10-----------|
|-------------------------------12----11\-12-12-|

|----------------------------------------------|
|----------------------------------------------|
|----------------------------------------------|
|----------------------------------------7-7-7-|
|-7----9---5----9---7-7-7-9-9-9-10-10-10-------|
|----------------------------------------------|

|------------------------------------|
|------------------------------------|
|------------------------------------|
|-9-9-9-10-10-10-11-11-11-12-12-12\--|
|------------------------------------|
|------------------------------------|

  PM------------|         PM-----------------|
|--------------------------------------------|
|--------------------------------------------|
|--------------------------------------------|
|--------------------7--------------7--7-8---|
|-7-7-7-7-6-7-7-7-6--5---6-7-7-7-6--5--5-6---|
|--------------------------------------------|

      PM----|         PM-----------------|
|----------------------------------------|
|----------------------------------------|
|----------------------------------------|
|-9\-------------7--------------7--7-8---|
|-7\--6-7-7-7-6--5---6-7-7-7-6--5--5-6---|
|----------------------------------------|

      PM----|         PM-----------------|
|----------------------------------------|
|----------------------------------------|
|----------------------------------------|
|-9\-------------7--------------7--7-8---|
|-7\--6-7-7-7-6--5---6-7-7-7-6--5--5-6---|
|----------------------------------------|

      PM----|         PM-----------------|
|----------------------------------------|
|----------------------------------------|
|----------------------------------------|
|-9\-------------7--------------7--7-8---|
|-7\--6-7-7-7-6--5---6-7-7-7-6--5--5-6---|
|----------------------------------------|

|------------------------------------------------------------------|
|------------------------------------------------------------------|
|------------------------------------------------------------------|
|------------------------------------------------------------------|
|-7p6h7p6h7p6h7p6h7p6h7p6h7p6h7p6h-7p6h7p6h7p6h7p6h7p6h7p6h7p6h7p6-|
|------------------------------------------------------------------|

|-----------------------------|
|-----------------------------|
|-9------8-9------------------|
|-9------9-9------7--------7--|
|-7------7-7------7--------7--|
|-7------7-7------5--------5--|

                          PM   PM    PM     PM
|----------------------------------------------------|
|----------------------------------------------------|
|-5-----5--------------------------------------------|
|-5-----5--------7-----------------------------------|
|-3-----3--------7------7-----7-----7------7-----7\--|
|-3-----3--------5------5-5-5-5-5-5-5-5--5-5-5-5-5\--|

|-----------------------------------------------------------|
|-----------------------------------------------------------|
|-----------------------------------------------------------|
|-----------------------------------------------------------|
|----5--4--5-----5--5-4-4-5-------5--4--5------5--5-4-4-5---|
|-0----------2--------------0--2----------2---------------0-|

|-----------------------------------------------------------|
|-----------------------------------------------------------|
|-----------------------------------------------------------|
|-----------------------------------------------------------|
|----5--4--5-----5--5-4-4-5-------5--4--5------5--5-4-4-5---|
|-2----------2--------------0--2----------2---------------0-|

|---------------------------------------------------------|
|---------------------------------------------------------|
|---------------------------------------------------------|
|---------------------------------------------------------|
|----5--4--5-----5--5-4-4-5-------5--4--5-----5--5-4-4-5--|
|-2----------2--------------0--2----------2-------------0-|

|-------------------------------------------|
|-------------------------------------------|
|-------------------------------------------|
|--------------------------------------7--8-|
|----5--4--5-----5--5-4-4-5------5-----5--6-|
|-2----------2--------------0--2------------|

    PM   PM    PM           PM
|----------------------------------------------|
|----------------------------------------------|
|----------------------------------------------|
|-9----9-----9------------9-----9\---7-8---9\--|
|-7--7-7-7-7-7-7-7-7-7-7--7-7-7-7\---5-6---7\--|
|----------------------------------------------|


and that's TOO FAST FOR LOVE
comments
print report bad tab
2 comments total.
0 reply
ibanez87 wrote on June 22 2006, 07:50 pm

Come on and dance and starry eyes are worng.

0 reply
TheHammer wrote on March 19 2009, 04:10 pm

wow, must have taken awhile pasting all of these...

I want to post or [tab]
guest
You may want to rate the tab now too:
select rating
Please do not post tabs as comments. Select "correction" instead!