Oops, an error
Loading. Please wait.

Ace Of Spades Tab

ver5
ver5
More versions @911Tabs.com
5,241 views 1 this week
2 commentsread comments
1 2 3 4 5
worth learning
x 3
Autoscroll
+/-
esc
set tempo
stop
WARNING: You are trying to view
                                    content from Ultimate-Guitar.com
                                    in an unauthorized application,
                                    which is prohibited.

                                    Please use an official Ultimate
                                    Guitar Tabs application for iPhone,
                                    iPad or Android to access legitimate
                                    chords, guitar, bass, and drum tabs
                                    from Ultimate-Guitar.com database.

                                    Type "ultimate guitar tabs" in Apple
                                    App Store's or Android Market's
                                    search to find the application.
 
Its all there jus put it in the right order, all the other ones sucked.







Intro                                           Verse
 
                                                  $

  Gtr I
                                               4x
|---------||----------------|------------------||----3------|-(3)----|
|---------||o---------------|-----------------o||----3------|-(3)----|
|---------||----------------|------------------||----0------|-(0)----|
|---------||----------------|-9----8-(8)---7---||-0--0------|-(0)----|
|---------||o----7--7-7-7-7-|----7-------7----o||-----------|--------|
|---------||--0-------------|------------------||-3---------|--------|


|----3------|-(3)--------|----3------|
|----3------|-(3)--------|----3------|
|----0------|-(0)--------|----0------|
|-0--0------|-(0)--------|-0--0------|
|-----------|------------|-----------|
|-3---------|------------|-3---------|


|-(3)--------|---------------|--------------|
|-(3)--------|---------------|--------------|
|-(0)--------|-0---0-(0)--0--|-(0)-0---0----|
|-(0)--------|-0---0-(0)--0--|-(0)-0---0----|
|------------|---------------|--------------|
|------------|-3---3-(3)--3--|-(3)-3---3----|


  E
  Gtr I
|------------------------|---------------------|
|------------------------|---------------------|
|------------------------|---------------------|
|------------------------|--9-----8--(8)----7--|
|-----7------7---7---7-7-|-----7---------7-----|
|-0----------------------|---------------------|
|
| Gtr II
|------------------------|---------------------|
|----14b15=====(14)r14---|-12----14-(14)---12--|
|----14b15=====(14)r14---|-12----14-(14)---12--|
|------------------------|---------------------|
|------------------------|---------------------|
|------------------------|---------------------|


|------------------------|--------------------|------------------------|
|------------------------|--------------------|------------------------|
|------------------------|--------------------|------------------------|
|------------------------|--9-----8--(8)---7--|------------------------|
|-----7------7---7---7-7-|-----7---------7----|-----7------7---7---7-7-|
|-0----------------------|--------------------|-0----------------------|
|
|------------------------|--------------------|------------------------|
|----14b15=====(14)r14---|-12-----------------|----14b15=====(14)r14---|
|----14b15=====(14)r14---|-12-----------------|----14b15=====(14)r14---|
|------------------------|-------14-(14)------|------------------------|
|------------------------|--------------------|------------------------|
|------------------------|--------------------|------------------------|


|---------------------|------------------------|
|---------------------|------------------------|
|---------------------|------------------------|
|--9-----8--(8)----7--|------------------------|
|-----7---------7-----|-----7------7---7---7-7-|
|---------------------|-0----------------------|
|
|---------------------|------------------------|
|-12----14-(14)---12--|----14b15=====(14)r14---|
|-12----14-(14)---12--|----14b15=====(14)r14---|
|---------------------|------------------------|
|---------------------|------------------------|
|---------------------|------------------------|


                       D5/A
|--------------------|----------|--------|
|--------------------|----------|--------|
|--------------------|-7--------|-(7)----|
|--9-----8--(8)---7--|-7--------|-(7)----|
|-----7---------7----|-5--------|-(5)----|
|--------------------|-5--------|-(5)----|
|
|--------------------|----------|--------|
|-12-----------------|----------|--------|
|-12-----------------|----------|--------|
|-------14-(14)------|----------|--------|
|--------------------|----------|--------|
|--------------------|----------|--------|


  C                       E
|----------|------------|------------------------|
|-3--------|-(3)--------|------------------------|
|-5--------|-(5)--------|------------------------|
|-5--------|-(5)--------|------------------------|
|-3--------|-(3)--------|-----7------7---7---7-7-|
|----------|------------|-0----------------------|
|
|----------|------------|------------------------|
|----------|------------|----14b15=====(14)r14---|
|----------|------------|----14b15=====(14)r14---|
|----------|------------|------------------------|
|----------|------------|------------------------|
|----------|------------|------------------------|


|---------------------|------------------------|---------------------|
|---------------------|------------------------|---------------------|
|---------------------|------------------------|---------------------|
|--9-----8--(8)----7--|------------------------|--9-----8--(8)---7---|
|-----7---------7-----|-----7------7---7---7-7-|-----7---------7-----|
|---------------------|-0----------------------|---------------------|
|
|---------------------|------------------------|---------------------|
|-12----14-(14)---12--|----14b15=====(14)r14---|-12------------------|
|-12----14-(14)---12--|----14b15=====(14)r14---|-12------------------|
|---------------------|------------------------|-------14-(14)-------|
|---------------------|------------------------|---------------------|
|---------------------|------------------------|---------------------|


  D5/A                    C
|----------|------------|----------|------------|
|----------|------------|-3--------|-(3)--------|
|-7--------|-(7)--------|-5--------|-(5)--------|
|-7--------|-(7)--------|-5--------|-(5)--------|
|-5--------|-(5)--------|-3--------|-(3)--------|
|-5--------|-(5)--------|----------|------------|


  E
|---------------|-----------------|-----------------|
|---------------|-----------------|-----------------|
|---------------|-----------------|-----------------|
|---------------|-9----8-(8)---7--|-----------------|
|----7--7-7-7-7-|----7-------7----|----7--7-7-7-7---|
|-0-------------|-----------------|-0---------------|


   
|-----------------|---------------|
|-----------------|---------------|
|-----------------|---------------|
|-9----8-(8)---7--|---------------|
|----7-------7----|----7--7-7-7-7-|
|-----------------|-0-------------|


                         
|-----------------|---------------|-----------------|
|-----------------|---------------|-----------------|
|-----------------|---------------|-----------------|
|-9----8-(8)---7--|---------------|-9----8-(8)---7--|
|----7-------7----|----7--7-7-7-7-|----7-------7----|
|-----------------|-0-------------|-----------------|


   Middle Section
    &
                                                         D5   E5
                                     4x
||----------------|------------------||----------|----------|----------|
||o---------------|-----------------o||----------|----------|----------|
||----------------|------------------||----------|----------|----------|
||----------------|-9----8-(8)---7---||----------|-------7--|-9--------|
||o----7--7-7-7-7-|----7-------7----o||-7--------|-------5--|-7--------|
||--0-------------|------------------||----------|----------|----------|


                                PM-----------------------|
|---------|---------|---------|-------------|-------------|
|---------|---------|---------|-------------|-------------|
|---------|---------|---------|-------------|-------------|
|---------|---------|---------|-9--9--9--9--|-9--9--9--9--|
|---------|---------|---------|-7--7--7--7--|-7--7--7--7--|
|---------|---------|---------|-------------|-------------|


  D
|--------------|-----------------|--------------|---------------|
|--------------|-----------------|--------------|---------------|
|--------------|-----------------|--------------|---------------|
|--------------|-----------------|--------------|---------------|
|-5--5--5-5-5--|-5--5-5-(5)-5-5--|-5--5--5-5-5--|-7---5-(5)--3--|
|--------------|-----------------|--------------|---------------|


  B
|--------------|-----------------|--------------|-----------------||
|--------------|-----------------|--------------|-----------------||
|--------------|-----------------|--------------|-----------------||
|--------------|-----------------|--------------|-----------------||
|-2--2--2-2-2--|-2--2-2-(2)-2-2--|-2--2--2-2-2--|-2--2-2-(2)-2-2--||
|--------------|-----------------|--------------|-----------------||


 Guitar Solo
  A
|----------------|-------------|----------------|
|----------------|-------------|----------------|
|----------------|-------------|----------------|
|----------------|-------------|------5--7-5----|
|----5b6r7--5----|-5-3----3----|-5S7---------7--|
|-5--------------|-----5-------|----------------|


|--------------|---------------|-----------------|
|--------------|---------------|-----------------|
|--------------|---------------|-----------------|
|-5S7---7-7----|-7-5----7-5----|-7-5----7-5------|
|--------------|-----7------7--|-----7------7----|
|--------------|---------------|-----------------|


                                        B
|--------------------|----------------|----------------|
|--------------------|----------------|----------------|
|--------------------|----------------|----------------|
|-7b8==8---7-(7)--5--|-(5)---------5--|-----7--9p7---7-|
|--------------------|-----7---5h7----|-/9---------9---|
|--------------------|----------------|----------------|


|-------------------|----------------------|---------------|
|-------------------|-10-------------------|---------------|
|----7--9b10==11----|----(11)rs=9-7-9-7----|-7------/x\----|
|-9-----------------|-------------------9--|---------------|
|-------------------|----------------------|---------------|
|-------------------|----------------------|---------------|


|------------------------|------------------------|
|-/10-10-10-10-10-10-10--|-/10-10-10-10-10-10-10--|
|-/11-11-11-11-11-11-11--|-/11-11-11-11-11-11-11--|
|------------------------|------------------------|
|------------------------|------------------------|
|------------------------|------------------------|


|--------------------------|-------------------------|
|-/10-10-10-11-11-11-12-12-|-12-13-13-13-14-14-15-15-|
|-/11-11-11-12-12-12-13-13-|-13-14-14-14-15-15-16-16-|
|--------------------------|-------------------------|
|--------------------------|-------------------------|
|--------------------------|-------------------------|


  A
|---------------------|-----------------|-------------------------|-------|
|-----15b16-17--15----|-15p13-----13----|-----13--15b16==15r15p13-|-------|
|-14------------------|-------14--------|-14----------------------|-14----|
|---------------------|-----------------|-------------------------|-------|
|---------------------|-----------------|-------------------------|-------|
|---------------------|-----------------|-------------------------|-------|


|--------------------------|----------------------------|
|-13-15-13-----------------|----------------------------|
|----------14--14p12----12-|-14b16==(16)r=14-12-----12--|
|--------------------14----|--------------------14------|
|--------------------------|----------------------------|
|--------------------------|----------------------------|


|---------------------|---------------------||
|---------------------|---------------------||
|-(12)----------------|---------------------||
|--------14-(14)--12--|-10------------10----||
|---------------------|-----12--10h12-------||
|---------------------|---------------------||


   Re-Intro
    E
                                     4x
||----------------|------------------||
||o---------------|-----------------o||
||----------------|------------------||
||----------------|-9----8-(8)---7---||
||o----7--7-7-7-7-|----7-------7----o||
||--0-------------|------------------||


 Verse
  G5
|----3------|-(3)--------|----3------|-(3)----|
|----3------|-(3)--------|----3------|-(3)----|
|----0------|-(0)--------|----0------|-(0)----|
|-0--0------|-(0)--------|-0--0------|-(0)----|
|-----------|------------|-----------|--------|
|-3---------|------------|-3---------|--------|


  Gtr I
|----3------|-(3)--------|---------------|--------------|
|----3------|-(3)--------|---------------|--------------|
|----0------|-(0)--------|-0---0-(0)--0--|-(0)-0---0----|
|-0--0------|-(0)--------|-0---0-(0)--0--|-(0)-0---0----|
|-----------|------------|---------------|--------------|
|-3---------|------------|-3---3-(3)--3--|-(3)-3---3----|
|
| Gtr II
|-----------|------------|---------------|--------------|
|-----------|------------|---------------|--------------|
|-----------|------------|---------------|--------------|
|-----------|------------|---------------|--------------|
|-----------|------------|---------------|--------------|
|-----------|------------|---------------|--------------|


  E
|------------------------|----------------------|
|------------------------|----------------------|
|------------------------|----------------------|
|------------------------|--9-----8--(8)----7---|
|-----7------7---7---7-7-|-----7---------7------|
|-0----------------------|----------------------|
|
|------------------------|----------------------|
|----14b15=====(14)r14---|-12----14-(14)---12---|
|----14b15=====(14)r14---|-12----14-(14)---12---|
|------------------------|----------------------|
|------------------------|----------------------|
|------------------------|----------------------|


|------------------------|--------------------|
|------------------------|--------------------|
|------------------------|--------------------|
|------------------------|--9-----8--(8)---7--|
|-----7------7---7---7-7-|-----7---------7----|
|-0----------------------|--------------------|
|
|------------------------|--------------------|
|----14b15=====(14)r14---|-12-----------------|
|----14b15=====(14)r14---|-12-----------------|
|------------------------|-------14-(14)------|
|------------------------|--------------------|
|------------------------|--------------------|


|------------------------|---------------------|------------------------|
|------------------------|---------------------|------------------------|
|------------------------|---------------------|------------------------|
|------------------------|--9-----8--(8)----7--|------------------------|
|-----7------7---7---7-7-|-----7---------7-----|-----7------7---7---7-7-|
|-0----------------------|---------------------|-0----------------------|
|
|------------------------|---------------------|------------------------|
|----14b15=====(14)r14---|-12----14-(14)---12--|----14b15=====(14)r14---|
|----14b15=====(14)r14---|-12----14-(14)---12--|----14b15=====(14)r14---|
|------------------------|---------------------|------------------------|
|------------------------|---------------------|------------------------|
|------------------------|---------------------|------------------------|


                       D5/A                    C
|--------------------|----------|------------|----------|--------|
|--------------------|----------|------------|-3--------|-(3)----|
|--------------------|-7--------|-(7)--------|-5--------|-(5)----|
|--9-----8--(8)---7--|-7--------|-(7)--------|-5--------|-(5)----|
|-----7---------7----|-5--------|-(5)--------|-3--------|-(3)----|
|--------------------|-5--------|-(5)--------|----------|--------|
|
|--------------------|----------|------------|----------|--------|
|-12-----------------|----------|------------|----------|--------|
|-12-----------------|----------|------------|----------|--------|
|-------14-(14)------|----------|------------|----------|--------|
|--------------------|----------|------------|----------|--------|
|--------------------|----------|------------|----------|--------|


  E
|------------------------|---------------------|
|------------------------|---------------------|
|------------------------|---------------------|
|------------------------|--9-----8--(8)----7--|
|-----7------7---7---7-7-|-----7---------7-----|
|-0----------------------|---------------------|
|
|------------------------|---------------------|
|----14b15=====(14)r14---|-12----14-(14)---12--|
|----14b15=====(14)r14---|-12----14-(14)---12--|
|------------------------|---------------------|
|------------------------|---------------------|
|------------------------|---------------------|


                                                D5/A
|------------------------|--------------------|----------|--------|
|------------------------|--------------------|----------|--------|
|------------------------|--------------------|-7--------|-(7)----|
|------------------------|--9-----8--(8)---7--|-7--------|-(7)----|
|-----7------7---7---7-7-|-----7---------7----|-5--------|-(5)----|
|-0----------------------|--------------------|-5--------|-(5)----|
|
|------------------------|--------------------|----------|--------|
|----14b15=====(14)r14---|-12-----------------|----------|--------|
|----14b15=====(14)r14---|-12-----------------|----------|--------|
|------------------------|-------14-(14)------|----------|--------|
|------------------------|--------------------|----------|--------|
|------------------------|--------------------|----------|--------|


  C                       E
|----------|------------|---------------|
|-3--------|-(3)--------|---------------|
|-5--------|-(5)--------|---------------|
|-5--------|-(5)--------|---------------|
|-3--------|-(3)--------|----7--7-7-7-7-|
|----------|------------|-0-------------|


|-----------------|---------------|------------------||
|-----------------|---------------|------------------||
|-----------------|---------------|------------------||
|-9----8-(8)---7--|---------------|-9----8-(8)---7---||
|----7-------7----|----7--7-7-7-7-|----7-------7-----||
|-----------------|-0-------------|------------------||


 Ending
|--------------|-----------------|--------------|
|--------------|-----------------|--------------|
|--------------|-----------------|--------------|
|--------------|-----------------|--------------|
|----7--7-7-7--|-7--7-7-(7)-7-7--|-7--7--7-7-7--|
|-0------------|-----------------|--------------|


|-----------------|--------------|------------------|
|-----------------|--------------|------------------|
|-----------------|--------------|------------------|
|-----------------|--------------|------------------|
|-7--7-7-(7)-7-7--|-7--7--7-7-7--|-7--7-7-(7)-7-7---|
|-----------------|--------------|------------------|


                                  Outro
                                   D5
  Gtr I
|--------------|-----------------|--------------------|----------|
|--------------|-----------------|--------------------|----------|
|--------------|-----------------|--7----------7------|--(7)-----|
|--------------|-----------------|--7----------7------|--(7)-----|
|-7--7--7-7-7--|-7--7-7-(7)-7-7--|--5----------5------|--(5)-----|
|--------------|-----------------|--------------------|----------|
|
| Gtr II
|--------------|-----------------|-12-----(12)--------|-(12)-----|
|--------------|-----------------|-15b17==(15)--------|-(15)r----|
|--------------|-----------------|--------------------|----------|
|--------------|-----------------|--------------------|----------|
|--------------|-----------------|--------------------|----------|
|--------------|-----------------|--------------------|----------|


  C5                                  D5
|--------------------|--------------|--------------------|----------|
|--------------------|--------------|--------------------|----------|
|--5----------5------|--(5)---------|--7----------7------|--(7)-----|
|--5----------5------|--(5)---------|--7----------7------|--(7)-----|
|--3----------3------|--(3)---------|--5----------5------|--(5)-----|
|--------------------|--------------|--------------------|----------|
|
|-12-----(12)--------|-(12)---------|-12-----(12)--------|-(12)-----|
|-15b17==(15)--------|-(15)r--------|-15b17==(15)--------|-(15)r----|
|--------------------|--------------|--------------------|----------|
|--------------------|--------------|--------------------|----------|
|--------------------|--------------|--------------------|----------|
|--------------------|--------------|--------------------|----------|


  C5
|--------------------|--------------|
|--------------------|--------------|
|--5----------5------|--(5)---------|
|--5----------5------|--(5)---------|
|--3----------3------|--(3)---------|
|--------------------|--------------|
|
|-12-----(12)--------|-(12)---------|
|-15b17==(15)--------|-(15)r--------|
|--------------------|--------------|
|--------------------|--------------|
|--------------------|--------------|
|--------------------|--------------|


  E5  D5     E5              E5  D5     E5
|----------------|---------|----------------*|
|----------------|---------|----------------*|
|----------------|---------|----------------*|
|-9---7-(7)--9\--|---------|-9---7-(7)--9\--*|
|-7---5-(5)--7\--|---------|-7---5-(5)--7\--*|
|----------------|---------|----------------*|
|
|----------------|---------|----------------*|
|----------------|---------|----------------*|
|----------------|---------|----------------*|
|----------------|---------|----------------*|
|----------------|---------|----------------*|
|----------------|---------|----------------*|
comments
We did not receive enough feedback on this tab! Please rate:
print report bad tab
1 2 3 4 5
2 comments total.
0 reply
Davito3 wrote on September 12 2006, 01:19 am

cdfvgsvgsdvsd

0 reply
TheGreaterGood wrote on October 18 2008, 05:01 pm

THIS SUCKKKKKSSSSS DICK

I want to post or [tab]
guest
You may want to rate the tab now too:
select rating
Please do not post tabs as comments. Select "correction" instead!