Oops, an error
Loading. Please wait.

Bleak Tab

54 views 3 this week
no commentswrite comment
1 2 3 4 5
please rate
Autoscroll
+/-
esc
set tempo
stop
Contributor
Difficulty
Tuning
intermediate
C G C G C E
Hey! There's an official Ultimate Guitar app which is ideal
for learning songs when you're away from computer. Get the app
WARNING: You are trying to view
                                    content from Ultimate-Guitar.com
                                    in an unauthorized application,
                                    which is prohibited.

                                    Please use an official Ultimate
                                    Guitar Tabs application for iPhone,
                                    iPad or Android to access legitimate
                                    chords, guitar, bass, and drum tabs
                                    from Ultimate-Guitar.com database.

                                    Type "ultimate guitar tabs" in Apple
                                    App Store's or Android Market's
                                    search to find the application.
www.myspace.com/mourningsidehc

MOURNINGSIDE - BLEAK


    D|---------------------------------|
    A|---------------------------------|
GTR F|---------------------------------|    
1+2 C|-0-----------------------------0-|              
    G|-0-(LR)------------------------0-|
    C|-0-----------------------------0-|
                                    PM

    D|-------------------------------------------------|
    A|-------------------------------------------------|
GTR F|-------------------------------------------------|    
 1  C|-------------------------------------------------| x4            
    G|-0-----------------0-----0-0---------------------|
    C|-0-----------------0-----0-0---------------------|
       PM               PM     P M

    D|-------------------------------------------------|
    A|-------------------------------------------------|
GTR F|-------------------------------------------12h13-|    
 2  C|-13-12-11-13-12-11-13-12-11-13-12-11-13-12-------| x4             
    G|-------------------------------------------------|
    C|-------------------------------------------------|

    D|-------------------------------------------------|
    A|-------------------------------------------------|
GTR F|-------------------------------------------------| x4   
1+2 C|-------------------------------------------------|              
    G|-0-----------------0-----0-0---------------------|
    C|-0-----------------0-----0-0---------------------|
       PM               PM     P M

    D|--------------------------------------------|
    A|--------------------------------------------|
GTR F|--------------------------------------------|    
 1  C|--------------------------------------------|              
    G|-----0-0-2-0-3-0-0-2-0-3-0-0----------------|
    C|-/12-0-0-2-0-3-0-0-2-0-3-0-0-33333-22222----|
           P M P M P M P M P M P M PM PM PM PM

    D|----------------------------------------|
    A|----------------------------------------|
GTR F|----------------------------------------|    
 2  C|-------------------------99999-88888----|              
    G|-0-0-2-0-3-0-0-2-0-3-0-0----------------|
    C|-0-0-2-0-3-0-0-2-0-3-0-0----------------|
       P M P M P M P M P M P M PMPM  PMPM

    D|----------------------------------------|
    A|----------------------------------------|
GTR F|----------------------------------------| 1,3,5,7  
1+2 C|----------------------------------------|              
    G|-0-0-2-0-3-0-0-2-0-3-0-0----------------|
    C|-0-0-2-0-3-0-0-2-0-3-0-0-33333-22222----|
       P M P M P M P M P M P M PMPM  PMPM

    D|----------------------------------------|
    A|------------------------------9---------|
GTR F|------------------------------12--------| 2,6 
1+2 C|----------------------------------------|              
    G|-0-0-2-0-3-0-0-2-0-3-0-0-0-0------------|
    C|-0-0-2-0-3-0-0-2-0-3-0-0-0-0------------|
       P M P M P M P M P M P M P M

    D|----------------------------------------|
    A|----------------------------------------|
GTR F|----------------------------------------| 4,8   
1+2 C|-------------------------99999-88888----|              
    G|-0-0-2-0-3-0-0-2-0-3-0-0----------------|
    C|-0-0-2-0-3-0-0-2-0-3-0-0----------------|
       P M P M P M P M P M P M PMPM  PMPM

    D|----------------------------------------|
    A|----------------------------------------|
GTR F|----------------------------------------| x2    
1+2 C|-0------6----1---------------2/3--------|              
    G|-0------6----1---------------2/3--------|
    C|-0------6----1---------------2/3--------|

    D|----------------------------------------|
    A|----------------------------------------|
GTR F|----------------------------------------| x4    
 1  C|-0------6----1---------------2/3--------|              
    G|-0------6----1---------------2/3--------|
    C|-0------6----1---------------2/3--------|

    D|----------------------------------------|
    A|----------------------------------------|
GTR F|----------------------------------------| x4    
 2  C|-----------------------------5h6--------|              
    G|-6-5-4-6-5-4-6-5-4-6-5-4-6-5------------|
    C|----------------------------------------|

    D|----------------------------------------|
    A|----------------------------------------|
GTR F|----------------------------------------| 1,3,5,7  
1+2 C|---------------7------------------------|              
    G|-0-0-0-0-0-0-0-5-0-0-0-0----------------|
    C|-0-0-0-0-0-0-0---0-0-0-0-33333-22222----|
       P M P M P M PM  P M P M PMPM  PMPM

    D|----------------------------------------|
    A|----------------------------------------|
GTR F|----------------------------------------| 2,4,6,8   
1+2 C|---------------7----------99999-88888---|              
    G|-0-0-0-0-0-0-0-5-0-0-0-0----------------|
    C|-0-0-0-0-0-0-0---0-0-0-0----------------|
       P M P M P M PM  P M P M PMPM  PMPM

    D|----------------------------------------|
    A|----------------------------------------|
GTR F|--------------------8-7-8---------------|    
1+2 C|--------------------8-7-8---------------| x3             
    G|-0--1--0--1--0--1---6-5-6---------------|
    C|-0--1--0--1--0--1-----------------------|

    D|----------------------------------------|
    A|----------------------------------------|
GTR F|--------------------8-7-8---------------|    
 1  C|--------------------8-7-8---------------|               
    G|-0--1--0--1--0--1---6-5-6---------------|
    C|-0--1--0--1--0--1-----------------------|

    D|----------------------------------------|
    A|----------------------------------------|
GTR F|-7------------------15-14-15-14---------|    
 2  C|----------------------------------------|              
    G|----------------------------------------|
    C|----------------------------------------|

    D|----------------------------------------|
    A|-6-----6-----6---5-----5-----5----------|
GTR F|---7-7---7-7---7---7-7---7-7---7--------| x8    
 1  C|----------------------------------------|              
    G|----------------------------------------|
    C|----------------------------------------|

    D|----------------------------------------|
    A|-6-----6-----6---5-----5-----5----------|
GTR F|---7-7---7-7---7---7-7---7-7---7--------| x10
1+2 C|----------------------------------------|              
    G|----------------------------------------|
    C|----------------------------------------|
         P M   P M  PM   P M   P M   PM
    
    D|-------------------------------------------------------|
    A|6----6----6---5----5----5---6----6----6---5----5----5--|
GTR F|--77---77---7---77---77---7---77---77---7---77---77---7| 
 1  C|-------------------------------------------------------|              
    G|-------------------------------------------------------|
    C|-------------------------------------------------------|
        PM   PM  PM   PM   PM   PM  PM   PM   PM  PM   PM   PM

    D|-------------------------------------------------------|
    A|-------------------------------------------------------|
GTR F|-77777777777-999-101010101010101010-999-10101010101010-|  
 2  C|-------------------------------------------------------|              
    G|-55555555555-777-8-8-8-8-8-8-8-8-8--777-8-8-8-8-8-8-8--|
    C|-------------------------------------------------------|

    D|-------------------------------------------------------|
    A|6----6----6---5----5----5---6----6----6---5----5----5--|
GTR F|--77---77---7---77---77---7---77---77---7---77---77---7| 
 1  C|-------------------------------------------------------|              
    G|-------------------------------------------------------|
    C|-------------------------------------------------------|
        PM   PM  PM   PM   PM   PM  PM   PM   PM  PM   PM   PM

    D|-------------------------------------------------------|
    A|-------------------------------------------------------|
GTR F|-77777777777-999-101010101010101010-999-10101010121212-|    
 2  C|-------------------------------------------------------|              
    G|-55555555555-777-8-8-8-8-8-8-8-8-8--777-8-8-8-8-101010-|
    C|-------------------------------------------------------|

    D|-------------------------------------------------------|
    A|6----6----6---5----5----5---6----6----6---5----5----5--|
GTR F|--77---77---7---77---77---7---77---77---7---77---77---7| 
 1  C|-------------------------------------------------------|              
    G|-------------------------------------------------------|
    C|-------------------------------------------------------|
        PM   PM  PM   PM   PM   PM  PM   PM   PM  PM   PM   PM

    D|-------------------------------------------------------|
    A|-------------------------------------------------------|
GTR F|-77777777777-999-101010101010101010-999-10101010101010-|  
 2  C|-------------------------------------------------------|              
    G|-55555555555-777-8-8-8-8-8-8-8-8-8--777-8-8-8-8-8-8-8--|
    C|-------------------------------------------------------|

    D|-------------------------------------------------------|
    A|-------------------------------------------------------|
GTR F|-77777777777-999-101010101010101010-999-10101010101010-|  
 2  C|-------------------------------------------------------|              
    G|-55555555555-777-8-8-8-8-8-8-8-8-8--777-8-8-8-8-8-8-8--|
    C|-------------------------------------------------------|

    D|--------------------------------|
    A|--------------------------------|
GTR F|--------------------------------|    
 1  C|-0------------------------------|              
    G|-0-(LR)-------------------------|
    C|-0------------------------------|

    D|-------------------------------------------------------|
    A|-------------------------------------------------------|
GTR F|-77777777777-999-101010101010101010-999-10101010101010-|  
 2  C|-------------------------------------------------------|              
    G|-55555555555-777-8-8-8-8-8-8-8-8-8--777-8-8-8-8-8-8-8--|
    C|-------------------------------------------------------|

    D|--------------------------------------------------------|
    A|--------------------------------------------------------|
GTR F|-14141414141414141414-1212-1414141414-12-14141414141414-|    
 1  C|--------------------------------------------------------|              
    G|--------------------------------------------------------|
    C|--------------------------------------------------------|

    D|-------------------------------------------------------|
    A|-------------------------------------------------------|
GTR F|-77777777777-999-101010101010101010-999-10101010101010-|    
 2  C|-------------------------------------------------------|               
    G|-55555555555-777-8-8-8-8-8-8-8-8-8--777-8-8-8-8-8-8-8--|
    C|-------------------------------------------------------|

    D|--------------------------------------------------------|
    A|--------------------------------------------------------|
GTR F|-141414141414141414-1212-1414141414-12-1414141415151515-|    
 1  C|--------------------------------------------------------|              
    G|--------------------------------------------------------|
    C|--------------------------------------------------------|   
   
    D|-------------------------------------------------------|
    A|-------------------------------------------------------|
GTR F|-77777777777-999-101010101010101010-999-10101010101010-|    
 2  C|-------------------------------------------------------|              
    G|-55555555555-777-8-8-8-8-8-8-8-8-8--777-8-8-8-8-8-8-8--|
    C|-------------------------------------------------------|

    D|--------------------------------------------------------|
    A|--------------------------------------------------------|
GTR F|-14141414141414141414-1212-1414141414-12-14141414141414-|    
 1  C|--------------------------------------------------------|              
    G|--------------------------------------------------------|
    C|--------------------------------------------------------|

    D|-------------------------------------------------------|
    A|-------------------------------------------------------|
GTR F|-77777777777-999-101010101010101010-999-10101010101010-|    
 2  C|-------------------------------------------------------|               
    G|-55555555555-777-8-8-8-8-8-8-8-8-8--777-8-8-8-8-8-8-8--|
    C|-------------------------------------------------------|

    D|--------------------------------------------------------|
    A|--------------------------------------------------------|
GTR F|-141414141414141414-1212-1414141414-12-1414141415151515-|    
 1  C|--------------------------------------------------------|              
    G|--------------------------------------------------------|
    C|--------------------------------------------------------|   
   
    D|-------------------------------------------------------|
    A|-------------------------------------------------------|
GTR F|-77777777777-999-101010101010101010-999-10101010101010-|    
 2  C|-------------------------------------------------------|              
    G|-55555555555-777-8-8-8-8-8-8-8-8-8--777-8-8-8-8-8-8-8--|
    C|-------------------------------------------------------|              
    
    D|----------------------------------------|
    A|----------------------------------------|
GTR F|-7--------------------------------------|    
 1  C|----------------------------------------|              
    G|-5-(LR)---------------------------------|
    C|----------------------------------------|


    D|----------------------------------------|
    A|----------------------------------------|
GTR F|-14 (LR)--------------------------------|    
 2  C|----------------------------------------|              
    G|----------------------------------------|
    C|----------------------------------------|

END
comments
We did not receive enough feedback on this tab! Please rate:
print report bad tab
1 2 3 4 5
I want to post or [tab]
guest
You may want to rate the tab now too:
select rating
Please do not post tabs as comments. Select "correction" instead!