Oops, an error
Loading. Please wait.

Fire Brigade Tab

by Move
4,104 views 3 this week
no commentswrite comment
1 2 3 4 5
excellent!
x 1
Autoscroll
+/-
esc
set tempo
stop
Contributor
NEW! There's an official Ultimate Guitar app which is ideal
for learning songs when you're away from computer. Get the app
WARNING: You are trying to view
                                    content from Ultimate-Guitar.com
                                    in an unauthorized application,
                                    which is prohibited.

                                    Please use an official Ultimate
                                    Guitar Tabs application for iPhone,
                                    iPad or Android to access legitimate
                                    chords, guitar, bass, and drum tabs
                                    from Ultimate-Guitar.com database.

                                    Type "ultimate guitar tabs" in Apple
                                    App Store's or Android Market's
                                    search to find the application.
---------------------------------------------------------------

  THE MOVE - FIRE BRIGADE (Wood) Released as a single with WALK 
             UPON THE WATER as the B side on February 1968. It 
             was a number 3 on the UK chart.

---------------------------------------------------------------

  Tabbed by:PJVillanueva





Cast your mind back ten years
To the girl who's next to me in school
If I put my hand upon her leg
She hit me with a rule

              *
Though tomorrow won't be long
You're gonna have to play it cool
You get fascinated by her
She could set the place on fire

             **
Run and get the fire brigade
Get the fire brigade
See the buildings start to really burn
Get the fire brigade
Get the fire brigade
If you jump you've got to wait your turn

Friends all seem to laugh
I fear I'm apt to make a compromise
Try to reassure myself
My head must need some exercise
Half past ten in the morning
She just took me by surprise
True she set the place on fire
You get fascinated by her


             ** 


The lights across the street throw a rainbow
On her hair
I'd love you all to meet her
I'll be there, I'll be there

Notice that my eyes have been
A misty place since Saturday
Brings a feeling we might lead
The fire engines anyway


             * 

             ** 

             




                                     
  A             Asus2 A...
e|------- ------- ------- -------|------- ------- ------- -------|
B|--------2-------0---2----------|----2-------0-------2----------|
G|--------2-------2---2-------2--|----2-------2-------2----------|
D|-------------------------------|-------------------------------|
A|0---------------------------0--|--------------------0----------|
E|-------------------------------|-------------------------------|



                                                      xxxxX
  D Dsus2 D Dsus4   Dsus2 D
e|----0-- 2---3-- ----0-- 2------|------- ------- ------- -------|
B|3---3---3---3-------3---3------|-------------------------------|
G|2---2---2---2-------2---2------|-------------------------------|
D|0---0---0---0-------0---0------|-------------------------------|
A|-------------------------------|-------------------------------|
E|-------------------------------|-------------------------------|




  G                               Bm
e|3------ 3------ ----3-- 3------|2------ 2------ ----2-- 2------|
B|3-------3-----------3---3------|3-------3-----------3---3------|
G|4-------4-----------4---4------|4-------4-----------4---4------|
D|5-------5-----------5---5------|4-------4-----------4---4------|
A|5-------5-----------5---5------|2-------2-----------2---2------|
E|3-------3-----------3---3------|-------------------------------|
  Cast    your mind   back    ten     years       To      the girl 



  F                           E
e|1------ 1------ ----1-- ----0--|------- 0------ ----0-- 0---0--|
B|1-------1-----------1-------0--|--------0-----------0---0---0--|
G|2-------2-----------2-------1--|--------1-----------1---1---1--|
D|3-------3-----------3-------2--|--------2-----------2---2---2--|
A|3-------3-----------3-------2--|--------2-----------2---2---2--|
E|1-------1-----------1-------0--|--------0-----------0---0---0--|
          who's   next    to  me      in  school



  Am                          Ammaj7                          Am7
e|0------ 0------ ----0-- ----0--|------- 0------ ----0-- ----0--|
B|1-------1-----------1-------1--|--------1-----------1-------1--|
G|2-------2-----------2-------1--|--------1-----------1-------0--|
D|2-------2-----------2-------2--|--------2-----------2-------2--|
A|0-------0-----------0-------0--|--------0-----------0-------0--|
E|-------------------------------|-------------------------------|
  If      I  put          my      hand    upon        her     leg



                                  D Dsus2 D Dsus4   Dsus2 D
e|------- 0------ ----0-- 0------|----0-- 2---3-- ----0-- 2------|
B|--------1-----------1---1------|3---3---3---3-------3---3------|
G|--------0-----------0---0------|2---2---2---2-------2---2------|
D|--------2-----------2---2------|0---0---0---0-------0---0------|
A|--------0-----------0---0------|-------------------------------|
E|-------------------------------|-------------------------------|
          She     hit     me       with a rule



  G                           Bm
e|3------ 3------ ----3-- -------|------- 2------ ----2-- -------|
B|3-------3-----------3----------|--------3-----------3----------|
G|4-------4-----------4----------|--------4-----------4----------|
D|5-------5-----------5----------|--------4-----------4----------|
A|5-------5-----------5----------|--------2-----------2----------|
E|3-------3-----------3----------|-------------------------------|
  Though  tomorrow            won't   be      long    You're gonna 



  F                           E
e|1------ 1------ ----1-- ----0--|------- 0------ ----0-- 0------|
B|1-------1-----------1-------0--|--------0-----------0---0------|
G|2-------2-----------2-------1--|--------1-----------1---1------|
D|3-------3-----------3-------2--|--------2-----------2---2------|
A|3-------3-----------3-------2--|--------2-----------2---2------|
E|1-------1-----------1-------0--|--------0-----------0---0------|
  have    to  play    it      cool        



  C                               D
e|0------ 0------ 0------ 0------|2------ 2------ 2---2-- 2------|
B|1-------1-------1-------1------|3-------3-------3---3---3------|
G|0-------0-------0-------0------|2-------2-------2---2---2------|
D|2-------2-------2-------2------|0-------0-------0---0---0------|
A|3-------3-------3-------3------|-------------------------------|
E|-------------------------------|-------------------------------|
  You get fascinated          by      her



  Csus2           G               Dsus4               G
e|------- 3------ ------- 3------|------- 3------ ------- -------|
B|----3-------3-------3-------3--|----3-------3------------------|
G|5---------------4--------------|2------------------------------|
D|-------------------------------|-------------------------------|
A|-------------------------------|-------------------------------|
E|-------------------------------|-------------------------------|
  She could set the place on fire
e|------- ------- ------- -------|------- ------- ------- -------|
B|-------------------------------|-------------------------------|
G|--------0---------------0------|-------------------------------|
D|----0-------0-------0----------|-------------------------------|
A|3---------------2-----------0--|----0--------0-----------------|
E|-------------------------------|----------------2-/-3---3------|




  G                           Fadd9               Fmaj7       G             
e|3------ 3------ 3---3-- ----3--|----3-- 3---3-- 0------ 0---3--|
B|0-------0-------0---0-------1--|----1---1---1---1-------1---0--|
G|0-------0-------0---0-------2--|----2---2---2---2-------2---0--|
D|0-------0-------0---0-------3--|----3---3---3---3-------3---0--|
A|2-------2-------2---2----------|----------------------------2--|
E|3-------3-------3---3----------|----------------------------3--|
  Run and get the fire    brigade         get the fire    brigade



                                  D                       G
e|------- 3------ ------- 3------|2------ ----2-- ------- 3------|
B|--------0---------------0------|3-----------3-----------0------|
G|--------0---------------0------|2-----------2-----------0------|
D|--------0---------------0------|0-----------0-----------0------|
A|--------2---------------2------|------------------------2------|
E|--------3---------------3------|------------------------3------|
          See the buildings       start   to really       burn



                              Fadd9               Fmaj7       G
e|------- 3------ 3---3-- 3---3--|3------ 3------ 0---0-- ----3--|
B|--------0-------0---0---0---1--|1-------1-------1---1-------0--|
G|--------0-------0---0---0---2--|2-------2-------2---2-------0--|
D|--------0-------0---0---0---3--|3-------3-------3---3-------0--|
A|--------2-------2---2---2------|----------------------------2--|
E|--------3-------3---3---3------|----------------------------3--|
          Get the fire    brigade         get the fire    brigade



                                  D                       G
e|------- 3------ ----3-- 3------|3------ ----3-- ------- 3------|
B|--------0-----------0---0------|3-----------3-----------0------|
G|--------0-----------0---0------|2-----------2-----------0------|
D|--------0-----------0---0------|0-----------0-----------0------|
A|--------2-----------2---2------|------------------------2------|
E|--------3-----------3---3------|------------------------3------|
          If you  jump    you've  got     to wait    your turn




e|3------ 3---3-- ------- 3------|----3-- 3------ ------- 3---3--|
B|0-------0---0-----------0------|----0---0---------------0---0--|
G|0-------0---0-----------0------|----0---0---------------0---0--|
D|0-------0---0-----------0------|----0---0---------------0---0--|
A|2-------2---2-----------2------|----2---2---------------2---2--|
E|3-------3---3-----------3------|----3---3---------------3---3--|

e|------- ------- ------- -------|------- ------- ------- -------|
B|-------------------------------|-------------------------------|
G|-------------------------------|-------------------------------|
D|-------------------------------|-------------------------------|
A|-------------------------------|-------------------------------|
E|2-H-3---3---3---2-H-3---3---2-H|3---3---3---3---2-H-3---3------|     
                                                                                    



  G                               Bm
e|3------ 3------ ----3-- 3------|2------ 2------ ----2-- 2------|
B|3-------3-----------3---3------|3-------3-----------3---3------|
G|4-------4-----------4---4------|4-------4-----------4---4------|
D|5-------5-----------5---5------|4-------4-----------4---4------|
A|5-------5-----------5---5------|2-------2-----------2---2------|
E|3-------3-----------3---3------|-------------------------------|
  Friends all     seem    to laugh    I           fear    I'm      



  F                           E
e|1------ 1------ ----1-- ----0--|------- 0------ ----0-- 0---0--|
B|1-------1-----------1-------0--|--------0-----------0---0---0--|
G|2-------2-----------2-------1--|--------1-----------1---1---1--|
D|3-------3-----------3-------2--|--------2-----------2---2---2--|
A|3-------3-----------3-------2--|--------2-----------2---2---2--|
E|1-------1-----------1-------0--|--------0-----------0---0---0--|
  apt     to make     a       compromise



  Am                          Ammaj7                          
e|0------ 0------ ----0-- -------|0------ 0------ ----0-- -------|
B|1-------1-----------1----------|1-------1-----------1----------|
G|2-------2-----------2----------|1-------1-----------1----------|
D|2-------2-----------2----------|2-------2-----------2----------|
A|0-------0-----------0----------|0-------0-----------0----------|
E|-------------------------------|-------------------------------|
  Try     to   reassure               myself              My 



  Am7                             D Dsus2 D Dsus4   Dsus2 D
e|0------ 0------ ----0-- 0------|----0-- 2---3-- ----0-- 2------|
B|1-------1-----------1---1------|3---3---3---3-------3---3------|
G|0-------0-----------0---0------|2---2---2---2-------2---2------|
D|2-------2-----------2---2------|0---0---0---0-------0---0------|
A|0-------0-----------0---0------|-------------------------------|
E|-------------------------------|-------------------------------|
  head    must    need    some    exercise



  G                           Bm
e|3------ 3---3-- ------- 3------|------- 2------ ----2-- -------|
B|3-------3---3-----------3------|--------3-----------3----------|
G|4-------4---4-----------4------|--------4-----------4----------|
D|5-------5---5-----------5------|--------4-----------4----------|
A|5-------5---5-----------5------|--------2-----------2----------|
E|3-------3---3-----------3------|-------------------------------|
  Half    past    ten in the  morning             She just    took 



  F                                       E
e|1------ 1------ ----1-- 1------|------- 0------ ----0-- 0------|
B|1-------1-----------1---1------|--------0-----------0---0------|
G|2-------2-----------2---2------|--------1-----------1---1------|
D|3-------3-----------3---3------|--------2-----------2---2------|
A|3-------3-----------3---3------|--------2-----------2---2------|
E|1-------1-----------1---1------|--------0-----------0---0------|
          me  by      surprise



  C                               D
e|0------ 0------ 0------ 0------|2------ 2------ 2---2-- 2------|
B|1-------1-------1-------1------|3-------3-------3---3---3------|
G|0-------0-------0-------0------|2-------2-------2---2---2------|
D|2-------2-------2-------2------|0-------0-------0---0---0------|
A|3-------3-------3-------3------|-------------------------------|
E|-------------------------------|-------------------------------|
  True she set the place  on  fire



  Csus2           G               Dsus4               G
e|------- 3------ ------- 3------|------- 3------ ------- -------|
B|----3-------3-------3-------3--|----3-------3------------------|
G|5---------------4--------------|2------------------------------|
D|-------------------------------|-------------------------------|
A|-------------------------------|-------------------------------|
E|-------------------------------|-------------------------------|
  You get fascinated          by      her
e|------- ------- ------- -------|------- ------- ------- -------|
B|-------------------------------|-------------------------------|
G|--------0---------------0------|-------------------------------|
D|----0-------0-------0----------|-------------------------------|
A|3---------------2-----------0--|----0--------0-----------------|
E|-------------------------------|----------------2-/-3---3------|
  



                              Fadd9                       Fmaj7
e|------- 3---3-- 3---3-- ----3--|------- 3------ ----3-- 3---3--|
B|--------0---0---0---0-------1--|--------1-----------1---1---1--|
G|--------0---0---0---0-------2--|--------2-----------2---2---2--|
D|--------0---0---0---0-------3--|--------3-----------3---3---3--|
A|--------2---2---2---2----------|-------------------------------|
E|--------3---3---3---3----------|-------------------------------|
  Run and get the fire    brigade         get the fire    brigade



  G                               D                       G
e|3------ 3------ ------- 3------|2------ ----2-- ------- 3------|   
B|0-------0---------------0------|3-----------3-----------0------|
G|0-------0---------------0------|2-----------2-----------0------|
D|0-------0---------------0------|0-----------0-----------0------|
A|2-------2---------------2------|------------------------2------|
E|3-------3---------------3------|------------------------3------|
          See the buildings       start   to really       burn



                              Fadd9               Fmaj7       G
e|------- 3------ 3---3-- 3---3--|3------ 3------ 0---0-- ----3--|
B|--------0-------0---0---0---1--|1-------1-------1---1-------0--|
G|--------0-------0---0---0---2--|2-------2-------2---2-------0--|
D|--------0-------0---0---0---3--|3-------3-------3---3-------0--|
A|--------2-------2---2---2------|----------------------------2--|
E|--------3-------3---3---3------|----------------------------3--|
          Get the fire    brigade         get the fire    brigade



                                  D                       G
e|------- 3------ ----3-- 3------|3------ ----3-- ------- 3------|
B|--------0-----------0---0------|3-----------3-----------0------|
G|--------0-----------0---0------|2-----------2-----------0------|
D|--------0-----------0---0------|0-----------0-----------0------|
A|--------2-----------2---2------|------------------------2------|
E|--------3-----------3---3------|------------------------3------|
          If you  jump    you've  got     to wait    your turn




e|3------ 3------ 3------ ----3--|------- 3------ 3------ 3------|
B|0-------0-------0-----------0--|--------0-------0-------0------|
G|0-------0-------0-----------0--|--------0-------0-------0------|
D|0-------0-------0-----------0--|--------0-------0-------0------|
A|2-------2-------2-----------2--|--------2-------2-------2------|
E|3-------3-------3-----------3--|--------3-------3-------3------|

  (AaaaaaaaaaaaaaahhhhhhhhhhhhhhhhhAaaaaaaaaaaaahhhhhhhhhhhhhhAaa
                                                                       

  C                                       B7
e|0------ 0------ ----0-- 0------|------- 2------ ----2-- 2------|
B|1-------1-----------1---1------|--------0-----------0---0------|
G|0-------0-----------0---0------|--------2-----------2---2------|
D|2-------2-----------2---2------|--------1-----------1---1------|
A|3-------3-----------3---3------|--------2-----------2---2------|
E|-------------------------------|-------------------------------|
          The lights      across      the    street  throw a rainbow
  aaaaaaaaaaaaaaahhhhhhhhhhhhhhh)



  Em              Eb+5            G               Em6
e|------- 3------ ------- 3------|------- 3------ ------- -------|
B|5-----------5---4-----------4--|3-----------3-------3----------|
G|-------------------------------|----------------6--------------|
D|-------------------------------|-------------------------------|
A|-------------------------------|-------------------------------|
E|-------------------------------|-------------------------------|
              On          her hair
e|------- ------- ------- -------|------- ------- ------- -------|
B|--------0---------------0------|--------0-------------------0--|
G|-------------------------------|-------------------------------|
D|2-----------2---1-----------1--|0-----------0-------0----------|
A|-------------------------------|----------------4-------4------|
E|-------------------------------|-------------------------------|
          



  C                           B7 
e|0------ 0------ ----0-- ----2--|------- 2------ ----2-- 2------|
B|1-------1-----------1-------0--|--------0-----------0---0------|
G|0-------0-----------0-------2--|--------2-----------2---2------|
D|2-------2-----------2-------1--|--------1-----------1---1------|
A|3-------3-----------3-------2--|--------2-----------2---2------|
E|-------------------------------|-------------------------------|
          I'd     love    you all         to  meet    her
e|------- ------- ------- -------|------- ------- ------- -------|
B|-------------------------------|-------------------------------|
G|-------------------------------|-------------------------------|
D|-------------------------------|-------------------------------|
A|3------------------------------|-------------------------------|
E|-------------------------------|-------------------------------|




  Am                              D
e|0------ 0------ 0------ 0------|2------ 2------ 2------ 2------|
B|1-------1-------1-------1------|3-------3-------3-------3------|
G|2-------2-------2-------2------|2-------2-------2-------2------|
D|2-------2-------2-------2------|0-------0-------0-------0------|
A|0-------0-------0-------0------|-------------------------------|
E|-------------------------------|-------------------------------|
  I'll    be  there,              I'll    be  there



  G                               Bm
e|3------ 3------ ----3-- 3------|2------ 2------ ----2-- -------|
B|3-------3-----------3---3------|3-------3-----------3----------|
G|4-------4-----------4---4------|4-------4-----------4----------|
D|5-------5-----------5---5------|4-------4-----------4----------|
A|5-------5-----------5---5------|2-------2-----------2----------|
E|3-------3-----------3---3------|-------------------------------|
  Notice          that my     eyes        have been       a   misty 



  F                               E
e|1------ 1------ 1---1-- 1------|0------ 0------ ----0-- 0---0--|
B|1-------1-------1---1---1------|0-------0-----------0---0---0--|
G|2-------2-------2---2---2------|1-------1-----------1---1---1--|
D|3-------3-------3---3---3------|2-------2-----------2---2---2--|
A|3-------3-------3---3---3------|2-------2-----------2---2---2--|
E|1-------1-------1---1---1------|0-------0-----------0---0---0--|
          place           since   Saturday



  Am                          Ammaj7                          Am7
e|0------ 0------ ----0-- ----0--|------- 0------ 0---0-- ----0--|
B|1-------1-----------1-------1--|--------1-------1---1-------1--|
G|2-------2-----------2-------1--|--------1-------2---1-------0--|
D|2-------2-----------2-------2--|--------2-------2---2-------2--|
A|0-------0-----------0-------0--|--------0-------0---0-------0--|
E|-------------------------------|-------------------------------|
  Brings  a   feeling             we  might   lead        The 




                                  D Dsus2 D Dsus4   Dsus2 D
e|------- 0------ ----0-- 0------|----0-- 2---3-- ----0-- 2------|
B|--------1-----------1---1------|3---3---3---3-------3---3------|
G|--------0-----------0---0------|2---2---2---2-------2---2------|
D|--------2-----------2---2------|0---0---0---0-------0---0------|
A|--------0-----------0---0------|-------------------------------|
E|-------------------------------|-------------------------------|
  fire        engines             anyway



  G                                       Bm
e|3------ 3------ ----3-- 3------|------- 2------ ----2-- -------|
B|3-------3-----------3---3------|--------3-----------3----------|
G|4-------4-----------4---4------|--------4-----------4----------|
D|5-------5-----------5---5------|--------4-----------4----------|
A|5-------5-----------5---5------|--------2-----------2----------|
E|3-------3-----------3---3------|-------------------------------|
  Though  tomorrow            won't   be      long    You're gonna 



  F                           E
e|1------ 1------ ----1-- ----0--|------- 0------ ----0-- 0---0--|
B|1-------1-----------1-------0--|--------0-----------0---0---0--|
G|2-------2-----------2-------1--|--------1-----------1---1---1--|
D|3-------3-----------3-------2--|--------2-----------2---2---2--|
A|3-------3-----------3-------2--|--------2-----------2---2---2--|
E|1-------1-----------1-------0--|--------0-----------0---0---0--|
  have    to  play    it      cool        



  C                               D
e|0------ 0------ 0------ 0------|2------ 2------ 2---2-- 2------|
B|1-------1-------1-------1------|3-------3-------3---3---3------|
G|0-------0-------0-------0------|2-------2-------2---2---2------|
D|2-------2-------2-------2------|0-------0-------0---0---0------|
A|3-------3-------3-------3------|-------------------------------|
E|-------------------------------|-------------------------------|
  You get fascinated          by      her



  Csus2           G               Dsus4               G
e|------- 3------ ------- 3------|------- 3------ ------- -------|
B|----3-------3-------3-------3--|----3-------3------------------|
G|5---------------4--------------|2------------------------------|
D|-------------------------------|-------------------------------|
A|-------------------------------|-------------------------------|
E|-------------------------------|-------------------------------|
  She could set the place on fire
e|------- ------- ------- -------|------- ------- ------- -------|
B|-------------------------------|-------------------------------|
G|--------0---------------0------|-------------------------------|
D|----0-------0-------0----------|-------------------------------|
A|3---------------2-----------0--|----0--------0-----------------|
E|-------------------------------|----------------2-/-3---3------|




                                  Fadd9
e|3------ 3------ 3---3-- 3------|3------ 3------ 3---3-- 3------|
B|0-------0-------0---0---0------|1-------1-------1---1---1------|
G|0-------0-------0---0---0------|2-------2-------2---2---2------|
D|0-------0-------0---0---0------|3-------3-------3---3---3------|
A|2-------2-------2---2---2------|-------------------------------|
E|3-------3-------3---3---3------|-------------------------------|
  Run and get the fire    brigade         get the fire    brigade



  G                               D                       G
e|3------ 3------ ----3-- 3------|2------ ----2-- ------- 3------|
B|0-------0-----------0---0------|3-----------3-----------0------|
G|0-------0-----------0---0------|2-----------2-----------0------|
D|0-------0-----------0---0------|0-----------0-----------0------|
A|2-------2-----------2---2------|------------------------2------|
E|3-------3-----------3---3------|------------------------3------|
          See the buildings       start   to really       burn



                                  Fadd9
e|------- 3---3-- 3---3-- 3------|3------ 3------ 3---3-- 3------|
B|--------0---0---0---0---0------|1-------1-------1---1---1------|
G|--------0---0---0---0---0------|2-------2-------2---2---2------|
D|--------0---0---0---0---0------|3-------3-------3---3---3------|
A|--------2---2---2---2---2------|-------------------------------|
E|--------3---3---3---3---3------|-------------------------------|
          Get the fire    brigade         get the fire    brigade



  G                               D                       G
e|3------ 3------ ----3-- 3------|3------ ----3-- ------- 3------|
B|0-------0-----------0---0------|3-----------3-----------0------|
G|0-------0-----------0---0------|2-----------2-----------0------|
D|0-------0-----------0---0------|0-----------0-----------0------|
A|2-------2-----------2---2------|------------------------2------|
E|3-------3-----------3---3------|------------------------3------|
          If you  jump    you've  got     to wait    your turn




e|------- 3------ ------- 3---3--|------- 3------ ------- 3------|
B|--------0---------------0---0--|--------0---------------0------|
G|--------0---------------0---0--|--------0---------------0------|
D|--------0---------------0---0--|--------0---------------0------|
A|--------2---------------2---2--|--------2---------------2------|
E|--------3---------------3---3--|--------3---------------3------|

e|------- ------- ------- -------|------- ------- ------- -------|
B|-------------------------------|-------------------------------|
G|-------------------------------|-------------------------------|
D|-------------------------------|-------------------------------|
A|-------------------------------|-------------------------------|
E|2-H-3---3---3---2-H-3---3---2-H|3---3---3---3---2-H-3---3------|     





e|------- 3---3-- ------- 3---3--|------- 3------ 3------ -------|
B|--------0---0-----------0---0--|--------0-------0--------------|
G|--------0---0-----------0---0--|--------0-------0--------------|
D|--------0---0-----------0---0--|--------0-------0--------------|
A|--------2---2-----------2---2--|--------2-------2--------------|
E|--------3---3-----------3---3--|--------2-------3--------------|
                                          D
e|------- ------- ------- -------|------- 2------ 3------ -------|
B|-------------------------------|--------3-------0--------------|
G|-------------------------------|--------2-------0--------------|
D|-------------------------------|--------0-------0--------------|
A|-------------------------------|----------------2--------------|
E|2-H-3---3---3---2-H-3---3------|----------------3--------------|










        B  Bend
        R  Release
        /  Slide up
        \  Slide down
        H  Hammer-on
        P  Pull-off
        ~  Vibrato
        +  Harmonic
        x  Mute note
        .  Play note like a dot in standard notation
        ^  Ties two notes together
        (. Pause
comments
We did not receive enough feedback on this tab! Please rate:
print report bad tab
1 2 3 4 5
I want to post or [tab]
guest
You may want to rate the tab now too:
select rating
Please do not post tabs as comments. Select "correction" instead!