Oops, an error
Loading. Please wait.

Next Time Around Bass Tab

2,634 views 15 this week
no commentswrite comment
1 2 3 4 5
excellent!
x 1
add to favorites launch autoscroll
font size
0
reset
Autoscroll
+/-
esc
set tempo
stop
Contributor
Difficulty
intermediate
WARNING: You are trying to view
                                    content from Ultimate-Guitar.com
                                    in an unauthorized application,
                                    which is prohibited.

                                    Please use an official Ultimate
                                    Guitar Tabs application for iPhone,
                                    iPad or Android to access legitimate
                                    chords, guitar, bass, and drum tabs
                                    from Ultimate-Guitar.com database.

                                    Type "ultimate guitar tabs" in Apple
                                    App Store's or Android Market's
                                    search to find the application.
                               Next Time Around                                 


                                                                         Mr. Big
Tabbed by: Atsu Kakitani
It's not 100% accurate, but hopefully this gives you an idea of what Billy plays!


      Intro                                                   
      T      T   T        T    T   T       T     T   T        
                                           |--3--|   |--3--|  
      S    S S   S  S  S  S  S S   S  S  S S  S  S   S  S  S  
G||----------------------------------------------------------|
D||--12p---0-7h-12p-7p-0-12p-0-7h-12p-7p-0-7p-0h-7h-12p-7p-0-|
A||----------------------------------------------------------|
E||----------------------------------------------------------|


   T    T   T        T    T   T       T     T   T        
                                      |--3--|   |--3--|  
   S  S S   S  S  S  S  S S   S  S  S S  S  S   S  S  S  
--------------------------------------------------------|
--12p-0-7h-12p-7p-0-12p-0-7h-12p-7p-0-7p-0h-7h-12p-7p-0-|
--------------------------------------------------------|
--------------------------------------------------------|


   T    T   T        T    T   T       T     T   T        
                                      |--3--|   |--3--|  
   S  S S   S  S  S  S  S S   S  S  S S  S  S   S  S  S  
--------------------------------------------------------|
--12p-0-7h-12p-7p-0-12p-0-7h-12p-7p-0-7p-0h-7h-12p-7p-0-|
--------------------------------------------------------|
--------------------------------------------------------|


                                       Verse 1                       
                           A     D                                   
  T    T    T     T     T                                            
  S  S S  S S  S  S  S  E  E  E  E     E       E  E  E  E  E  E  E   
------------------------------------|-------------------------------|
--5p-0-7p-0-9p-0-11p-0-12-----------|-------------------------------|
---------------------------0-----5--|--L-------5--5--5--5--5--5--5--|
------------------------------------|-------------------------------|


                 A     D                              
  E  E  E  E  E  E  E  E     E  E  E  E  E  E  E  E   
--------------------------|--------------------------|
--------------------------|--------------------------|
--5--5--5--5--5--------5--|--L--5--5--5--5--5--5--5--|
-----------------5--------|--------------------------|


                       Bm                         E7  
  E  E  E  E  E  E  E  E     E  E  E  E  Q     E  E   
--------------------------|--------------------------|
--------------------------|--------------------------|
--5--5--5--5--5-----------|--------------------------|
-----------------5-----7--|--L--7--7--7--7\-------0--|


                       G                              
  E  E  E  E  E  E  E  E     E  E  E  E  E  E  E  E   
--------------------------|--------------------------|
--------------------------|--------------------------|
--------------------------|--------------5-----5-----|
--L--0--0--0--0--0-----3--|--L--3--3--3-----3-----3--|


                 A     D                              
  E  E  E  E  E  E  E  E     E  E  E  E  E  E  E  E   
--------------------------|--------------------------|
--------------------------|--------------------------|
-----------------------5--|--L--5--5--5--5--5--5--5--|
--3--3--3--5-----5--------|--------------------------|


                 A     D                              
  E  E  E  E  E  E  E  E     E  E  E  E  E  E  E  E   
--------------------------|--------------------------|
--------------------------|--------------------------|
--5--5--5--5--5--------5--|--L--5--5--5--5--5--5--5--|
-----------------5--------|--------------------------|


                         Bm                         E7  
   E  E   E  E  E  E  E  E     E  E  E  E  Q     E  E   
----------------------------|--------------------------|
--/4--7S--4-----------------|--------------------------|
-------------5--5-----------|--------------------------|
-------------------5-----7--|--L--7--7--7--7\-------0--|


                       G                              
  E  E  E  E  E  E  E  E     E  E  E  E  E  E  E  E   
--------------------------|--------------------------|
--------------------------|--------------------------|
--------------------------|--------------5-----5-----|
--L--0--0--0--0--0-----3--|--L--3--3--3-----3-----3--|


                             Chorus                                            
                             D      Cadd9        G/B           Cadd9           
  E  E  E  E  E  E  E  E     Q.     E     Q.     E      Q.     E     H         
--------------------------|--------------------------|------------------------|
--------------------------|--------------------------|------------------------|
--------------0-----------|--5------3-----L------2---|--L------3-----L--------|
--3--3--3--3-----3--2--0--|--------------------------|------------------------|


  D      Cadd9        G/B           Cadd9             D        Em7           
  Q.     E     Q.     E      Q.     E     H           E  E  E  E   H         
--------------------------|------------------------|------------------------|
--------------------------|------------------------|-----7------------------|
--5------3-----L------2---|--L------3-----L--------|--5-----5---------------|
--------------------------|------------------------|-----------0---L--------|


  D/F#   G              Asus2                      Csus2             
  Q.     E  H           Q     E  E  E  E  E  E     W                 
---------------------|--------------------------|-------------------|
---------------------|--------------------------|-------------------|
---------------------|--------------------------|--3----------------|
--2------3--L--------|--5-----5--5--5--5--5--5--|-------------------|


-------------------|
-------------------|
-------------------|
-------------------|


   Tapping Riff                                                   
   T             T   T        T    T   T       T     T   T        
                                               |--3--|   |--3--|  
   S           S S   S  S  S  S  S S   S  S  S S  S  S   S  S  S  
-----------------------------------------------------------------|
--12p----------0-7h-12p-7p-0-12p-0-7h-12p-7p-0-7p-0h-7h-12p-7p-0-|
-----------------------------------------------------------------|
-----------------------------------------------------------------|


                           A     D                    A     D   
  T    T    T     T     T                                       
  S  S S  S S  S  S  S  E  E  E  E     E  E  E  E  E  E  E  E   
------------------------------------|--------------------------|
--5p-0-7p-0-9p-0-11p-0-12-----------|--------------------------|
---------------------------0-----5--|--L--5--5--5--5--------5--|
------------------------------------|-----------------5--------|


                                                  Bm  
  E  E  E  E  E  E  E  E     E  E  E  E  E  E  E  E   
--------------------------|--------------------------|
--------------------------|--------------------------|
--L--5--5--5--5--5--5--5--|--5--5--5--5--5--5--------|
--------------------------|--------------------5--7--|


                       E7                         G   
  E  E  E  E  Q     E  E     E  E  E  E  E  E  E  E   
--------------------------|--------------------------|
--------------------------|--------------------------|
--------------------------|--------------------------|
--L--7--7--7--7\-------0--|--L--0--0--0--0--0-----3--|


  E  E  E  E  E  E  E  E     E  E  E  E  E  E  E  E   
--------------------------|--------------------------|
--------------5--4--2--0--|--------------------------|
--------------------------|--3--2--0-----------0--5--|
--L--3--3--3--------------|-----------3--2--3--------|


  Chorus                                            
  D      Cadd9        G/B           Cadd9           
  Q.     E     Q.     E      Q.     E     H         
--------------------------|------------------------|
--------------------------|------------------------|
--5------3-----L------2---|--L------3-----L--------|
--------------------------|------------------------|


  D        Cadd9        G/B           Cadd9             D      Em7           
  E  E  E  E     Q.     E      Q.     E     H           Q.     E   H         
----------------------------|------------------------|----------------------|
----------------------------|------------------------|----------------------|
--5-----5--3-----L------2---|--L------3-----L--------|--5-------------------|
-----5----------------------|------------------------|---------0---L--------|


  D/F#   G              Asus2                      Csus2             
  Q.     E  H           Q     E  E  E  E  E  E     W                 
---------------------|--------------------------|-------------------|
---------------------|--------------------------|-------------------|
---------------------|--------------------------|--3----------------|
--2------3--L--------|--5-----5--5--5--5--5--5--|-------------------|


  Guitar Solo                                                  
  Bm                                                           
  E           E  E  E  E  E  E  E     E  E  E  E  E  E  E  E   
-----------------------------------|--------------------------|
-----------------------------------|--------------------------|
--2-----------2--2--2--2--2--2--2--|--2--2--2--2--2--2--2--2--|
-----------------------------------|--------------------------|


  E                                                      
  E  E  E  E  E  E  E  E     E  E  E  E   E  E  S  S E   
--------------------------|-----------------------------|
--------------------------|-----------------------------|
--------------------------|------------------5----------|
--0--0--0--0--0--0--0--0--|--0--0--2--5--/7-----7s-5-2--|


  Bm                                                  E                        
  Q.     E  E  E  E  E     E  E  E  E  E  E  E  E     E  E  E  E  E  E  E  E   
------------------------|--------------------------|--------------------------|
------------------------|--------------------------|--------------------------|
--2------2--2--2--2--2--|--2--2--2--2--2--2--2--2--|--------------------------|
------------------------|--------------------------|--0--0--0--0--0--0--0--0--|


                             Half-Time Feel                                
                             G              D/F#        Em       D         
  E  E  E  E  E  E  E  E     H              H           H        H         
--------------------------|--------------------------|--------------------|
--------------------------|--------------------------|--------------------|
--------------------------|--------------------------|--7--------5--------|
--0--0--0--0--0--0--0--2--|--3--------------2--------|--------------------|


  C        G/B         F#m                                             
  H        H           H        E  E  E  E     E  E  E  E  E.  E.  E   
--------------------|-----------------------|-------------------------|
--------------------|-----------------------|-------------------------|
--3--------2--------|-----------------------|-------------------------|
--------------------|--2--------2--2--2--2--|--2--2--2--2--2---2---2--|


       Trill by tapping the G                                             
  F                                                   Csus2               
       tr                                                                 
  Q    H.                        H        H           Q.     E  H         
------------------------------|--------------------|---------------------|
------------------------------|--------------------|---------------------|
------------------------------|--------------------|--3------3--3--------|
--1----1(3)-------------------|--L--------1--------|---------------------|


                        Return to Regular Time                       
  Bbsus2                Asus2                                        
  Q.     E  H           E                      E  E  E  E  E  E  E   
---------------------|----------------------------------------------|
---------------------|----------------------------------------------|
--1------1--1--------|----------------------------------------------|
---------------------|--5----------------------5--5--5--5--5--5--5--|


                             Verse 3                       
                 A     D                                   
  E  E  E  E  E  E  E  E     E       E  E  E  E  E  E  E   
--------------------------|-------------------------------|
--------------------------|-------------------------------|
-----------------------5--|--L-------5--5--5--5--5--5--5--|
--5--5--5--5--5--5--------|-------------------------------|


                 A     D                                  
  E  E  E  E  E  E  E  E     E  E  E  E  S S  E   E  S S  
--------------------------|------------------------------|
--------------------------|------------------------------|
--5--5--5--5--5--------5--|--L--5--5--5--------------5-7-|
-----------------5--------|--------------0-2h-5s--7------|


                                    Bm                         E7  
   S  S  S S S  S S  S  E  S  S  E  E     E  E  E  E  Q     E  E   
---------------------------------------|--------------------------|
---------------------------------------|--------------------------|
---9p-7p-5---7p-5----------------------|--------------------------|
-----------7------7p-5-/7--5p-2h-5--7--|--L--7--7--7--7\-------0--|


                       G                              
  E  E  E  E  E  E  E  E     E  E  E  E  E  E  E  E   
--------------------------|--------------------------|
--------------------------|--------------------------|
--------------------------|--------------5-----5-----|
--L--0--0--0--0--0-----3--|--L--3--3--3-----3-----3--|


                                      Chorus                   
                                      D      Cadd9        G/B  
   E  S  S E  S  S E  S  S S S S S    Q.     E     Q.     E    
-----------------------------------|--------------------------|
--/7--5p-4-5--4p-2-4--2p-0---------|--------------------------|
---------------------------3-2-0---|--5------3-----L------2---|
---------------------------------3-|--------------------------|


         Cadd9             D      Cadd9        G/B           Cadd9           
  Q.     E     H           Q.     E     Q.     E      Q.     E     H         
------------------------|--------------------------|------------------------|
------------------------|--------------------------|------------------------|
--L------3-----L--------|--5------3-----L------2---|--L------3-----L--------|
------------------------|--------------------------|------------------------|


  D        Em7             D/F#   G              Asus2                    
  E  E  E  E   H           Q.     E  H           Q     E  E  E  E  E  E   
------------------------|---------------------|--------------------------|
------------------------|---------------------|--------------------------|
--5-----5---------------|---------------------|--------------------------|
-----5-----0---L--------|--2------3--L--------|--5-----5--5--5--5--5--5--|


                                Chorus (Second Time)                   
  Csus2                         D                    Cadd9        G/B  
  E     E  E  E  E  E  E  E     Q.                   E     Q.     E    
-----------------------------|----------------------------------------|
-----------------------------|----------------------------------------|
--3-----3--3--3--3--3--3--3--|--5--------------------3-----L------2---|
-----------------------------|----------------------------------------|


         Cadd9             D      Cadd9        G/B           Cadd9           
  Q.     E     H           Q.     E     Q.     E      Q.     E     H         
------------------------|--------------------------|------------------------|
------------------------|--------------------------|------------------------|
--L------3-----L--------|--5------3-----L------2---|--L------3-----L--------|
------------------------|--------------------------|------------------------|


  D        Em7             D/F#   G              Asus2                    
  E  E  E  E   H           Q.     E  H           Q     E  E  E  E  E  E   
------------------------|---------------------|--------------------------|
------------------------|---------------------|--------------------------|
--5-----5---------------|---------------------|--------------------------|
-----5-----0---L--------|--2------3--L--------|--5-----5--5--5--5--5--5--|


                                Chorus (With Guitar Melody)                   
  Csus2                         D                           Cadd9        G/B  
  E     E  E  E  E  E  E  E     Q.                          E     Q.     E    
-----------------------------|-----------------------------------------------|
-----------------------------|-----------------------------------------------|
--3-----3--3--3--3--2--0-----|--5---------------------------3-----L------2---|
--------------------------3--|-----------------------------------------------|


         Cadd9             D        Cadd9        G/B           Cadd9           
  Q.     E     H           E  E  E  E     Q.     E      Q.     E     H         
------------------------|----------------------------|------------------------|
------------------------|----------------------------|------------------------|
--L------3-----L--------|--5-----5--3-----L------2---|--L------3-----L--------|
------------------------|-----5----------------------|------------------------|


  D        Em7             D/F#   G              Asus2                    
  E  E  E  E   H           Q.     E  H           Q     E  E  E  E  E  E   
------------------------|---------------------|--------------------------|
------------------------|---------------------|--------------------------|
--5-----5---------------|---------------------|--------------------------|
-----5-----0---L--------|--2------3--L--------|--5-----5--5--5--5--5--5--|


                       Outro                                                   
  Csus2                                                                        
                       T      T   T        T    T   T       T     T   T        
                                                            |--3--|   |--3--|  
  W                    S    S S   S  S  S  S  S S   S  S  S S  S  S   S  S  S  
-------------------|----------------------------------------------------------|
-------------------|--12p---0-7h-12p-7p-0-12p-0-7h-12p-7p-0-7p-0h-7h-12p-7p-0-|
--3----------------|----------------------------------------------------------|
-------------------|----------------------------------------------------------|


                           A     D                       
  T    T    T     T     T                                
  S  S S  S S  S  S  S  E  E  E  E     W                 
------------------------------------|-------------------|
--5p-0-7p-0-9p-0-11p-0-12-----------|-------------------|
---------------------------0-----5--|--L----------------|
------------------------------------|-------------------|


    Free Time                                                   
    E        E   E   E   E   Q     E          W                 
--/12-------11----------------------------|--------------------|
----------------12----------10-----Lbrb~--|---L----------------|
--------------------12--10----------------|--------------------|
------------------------------------------|--------------------|


-------------------||
-------------------||
-------------------||
-------------------||




Duration Legend
---------------
W - whole
H - half
Q - quarter
E - 8th
S - 16th
T - 32nd
X - 64th
. - note dotted
|-n-|  - n-tuplets


Tablature Legend
----------------
L - tied note
x - dead note
g - grace note
(n) - ghost note
> - accentuded note
NH - natural harmonic
AH - artificial harmonic
TH - tapped harmonic
SH - semi harmonic
PH - pitch harmonic
h - hammer on
p - pull off
b - bend
br - bendRelease
pb - preBend
pbr - preBendRelease
brb - bendReleaseBend
\n/ - tremolo bar dip
\n - tremolo bar dive
-/n - tremolo bar Release up
/n\ - tremolo bar inverted dip
/n - tremolo bar return
-\n - tremolo bar Release down
S - shift slide
s - legato slide
/ -  slide into from below or out of upwards
\ -  slide into from above or out of downwards
~ - vibrato
W - wide vibrato
tr - trill
TP - tremolo picking
T - tapping
S - slap
P - pop
< - fade in
^ - brush up
v - brush down
comments
We did not receive enough feedback on this tab! Please rate:
1 2 3 4 5
I want to post or [tab]
guest
You may want to rate the tab now too:
select rating
Please do not post tabs as comments. Select "correction" instead!