Oops, an error
Loading. Please wait.

Rollin Stone Tab

ver2
ver2

Whole song

Interactive

More versions @911Tabs.com
5,191 views 9 this week
no commentswrite comment
1 2 3 4 5
please rate
Autoscroll
+/-
esc
set tempo
stop
Contributor
Hey! There's an official Ultimate Guitar app which is ideal
for learning songs when you're away from computer. Get the app
WARNING: You are trying to view
                                    content from Ultimate-Guitar.com
                                    in an unauthorized application,
                                    which is prohibited.

                                    Please use an official Ultimate
                                    Guitar Tabs application for iPhone,
                                    iPad or Android to access legitimate
                                    chords, guitar, bass, and drum tabs
                                    from Ultimate-Guitar.com database.

                                    Type "ultimate guitar tabs" in Apple
                                    App Store's or Android Market's
                                    search to find the application.
Gtr I (E A D G B E) - 'Muddy Waters - Electric w/amp overdrive'

Intro
  Q=80(8=s8)
 4/4
  Gtr I
  PM
                    |---3----|
  E       E E a    +E  +S  S E    E E E E
|-------|---------------------------0---------|
|-------|-------------------------------------|
|-------|-----2b3==(2)r(2)p0------0-----------|
|-------|-2------------------2tr0-------------|
|-------|-------------------------------------|
|-3b3.5-|---x-------------------------0-3b3.5-|


                                     2/4
            |---3----|
  E E a     E  +S  S E E E a E E      +E  E E E
|------------------------0---0-0----|-(0)--------||
|----------------------------0------|------------||
|-1---2b3==(2)r(2)p0-------0h1-0tr1-|------------||
|-2---------0--------2--------------|------------||
|-----------------------------------|------------||
|---0------------------0-------0----|-------3----||


 Verse
 4/4
            |---3----|              |------3-------|
  E E a    +E  +S  S E Q  E E   E E S     S  +S  S E E E E E   E E Q  Q  E E
|----------------------0------|----------------------0-------|-----3----------|
|-----------------------------|------------------------------|----------------|
|-----2b3==(2)r(2)p0----------|-----2b3==(2)r(2)p0-------1---|-2---2--2-------|
|--------------------2--------|-2---0h====2--------2-----2---|-2---2--2--2----|
|-----------------------------|------------------------------|----------------|
|-0-x---------------------0---|-0-0------------------0-0-0-3-|-0-x-0--0--0-x--|


  E E E E E E E E   Q  Q  E E E E       E E E E Q  E     E
|-----3-3-3-------|-0--0----0---------|---0-0-0-0----------|
|-----------------|-------------------|--------------------|
|-2-----------2---|----1------2-------|--------------------|
|-2-----------2-0-|----2------2-------|-2----------------2-|
|-----------------|-------------------|--------------------|
|-0-0-0-0-0-0-0---|-0--0--0---0-3b3.5-|-----0---0--3b3.5---|


  Q  Q  Q  E     E   Q  Q  Q  E     E   E E E E E    +E  +S  S a E
|-------0----------|-------0----------|-0-0------------------------|
|------------------|------------------|----------------------------|
|------------------|------------------|---0-----2b3==(2)r(2)p0-0h1-|
|----------------2-|----------------2-|--------------------------2-|
|------------------|------------------|----------------------------|
|-0--0--0--3b3.5---|-0--0--0--3b3.5---|-0---0-0--------------------|


  E E E E S S    +E   S S a E   Q  E E S    +E  S  S S a E
|-0-0-------------------------|--------------------0-0---0-|
|-----------------------------|--------------------------0-|
|---------2-2b3==(2)r-2p0-0h1-|--------2b3==(2)-2r-2-0-1p0-|
|---------0h2---------0h2---2-|--------0-----------0-----2-|
|-----------------------------|----------------------------|
|-0---0-0-------------0-------|-0--0-0---------------------|


  E a E a S S E S     E  S  a  S  S E
|-----0---0-0-0-------------------0-0-|
|-----0---0-0-0-------------------0---|
|---0h1-0h1-1-1-2b3==(2)-2r-2-(2)p0---|
|---------------0h====2--2--0h=2----2-|
|-------------------------------------|
|-0-----------------------------------|


                       Verse
                    $
                                  |---3----|
  E E a E a E Q  Q      E E a    +E  +S  S E Q  Q
|-0-0---0---0-------||-----------------------0-----|
|---0---0-----------||o----------------------------|
|---1-0h1-0h1-------||------2b3==(2)r(2)p0---------|
|---0---2--------2--||---------------------2-------|
|-------------------||o----------------------------|
|-0---------0-0--0--||--0-0------------------0--0--|


      |------3-------|
  E E S     S  +S  S E E E E E
|----------------------0-0-----|
|------------------------------|
|-----2b3==(2)r(2)p0-----------|
|-----0h====2--------2---------|
|------------------------------|
|-0-0------------------0---0-3-|


  E E E E E E E E   E E E E E E E E   E E E E E E E E
|-----3-----3-3---|---3-3-3-3-3-----|---0-0---------------|
|-----------------|-----------------|---------------------|
|-----------------|---------------0-|-------------2-------|
|-------------2---|-----------------|-------------2-------|
|-0---0---0-------|-0-----------4---|-0-------------------|
|-0-0-0-x-0-0---0-|-0-0-0-0-0---0---|-0-0-0-0-0-x-0-3b3.5-|


                                                    To Coda
  Q  Q  E E E     E   E E Q  E E E     E   Q  E E Q  E     E
|-------0-0---------|----------0---------|------0-0----------|
|-------------------|--------------------|-------------------|
|-----------------1-|------------------1-|-------------------|
|-2---------------2-|------------------2-|----2------------2-|
|-------------------|--------------------|-------------------|
|----0--0---3b3.5---|-0-0-0--0---3b3.5---|-0--0---0--3b3.5---|


  E a E E E S  S     +E   S S E
|-------------------------------|
|-----0-------------------------|
|---0h1-1-1-2-(2)b4==(2)r-2p0-1-|
|---0h2-2-2-0h=2----------0---2-|
|-------------------------------|
|-0-----------------------------|


                              1.
  E E E. S S    +E   S S S E   E E E E S    +E   S S S E
|---0----------------2-------|---0---0-----------0--------|
|---0------------------------|---0---0--------------------|
|-1-1------2b3==(2)r---2p0-1-|---1---1-2b3==(2)r---2p0-1--|
|-2-2----0-------------0h2-2-|---------0-----------0h2-2--|
|----------------------------|----------------------------|
|-0---0----------------------|-0---0----------------------|


  E E    +S  S E S    +E  S  S S E
|---0----(0)-0-0-0-------------0-0-|
|---0----(0)-0-0---------------0-0-|
|---0tr1-(0)-1-1-2b3==(2)-2r-2-0-1-|
|---2----(2)-2-2-0--------2--0-2-2-|
|----------------------------------|
|-0--------------------------------|


  E E    +S  S E S    +E  S  S S E   E E a E E E E E E
|---0----(0)-0-0-0-------------0-0-|---0---0-0-----------||
|---0----(0)-0-0---------------0-0-|---0---0------------o||
|---0tr1-(0)-1-1-2b3==(2)-2r-2-0-1-|---1-0h1-------------||
|---2----(2)-2-2-0--------2--0---2-|---2---2-------------||
|----------------------------------|--------------------o||
|-0--------------------------------|-0-------0-0-0-0-0---||


  2.
  E E E E S    +E  S  S S E   E E    +S  S E E    +S   S S S E
|---0-----------------------|---0----(0)-0-0-----------0---0-0-|
|---------------------------|---0----(0)-0-0-------------------|
|---------2b3==(2)-2r-2p0-0-|---0tr1-(0)-1-1-2b3==(2)r---2p0-1-|
|---------0-----------0---2-|---2----(2)-2-2-0---------2-0-----|
|---------------------------|----------------------------------|
|-0---0-0-------------------|-0--------------------------------|


  E E    +S  S E S    +S   E a S S E
|---0----(0)-0-0-----------0-----0-0--|
|---0----(0)-0-0-----------------0-0--|
|---0tr1-(0)-1-1-2b3==(2)r-----2-0-1--|
|---2----(2)-2-2-0---------2-0h2---2--|
|-------------------------------------|
|-0-----------------------------------|


                        Guitar Solo
  E E a E E +E  E E E    E E S S E E E E E   E E S S E E E S S E
|---0---0-0-(0)-0-0-0-||---3---3---3-3-2-0-|---3---3---3-3-3s2-0-|
|---0---0-0-(0)-0-0-0-||-2-------------2-0-|-------------3-3---0-|
|---1-1p0-1-(1)-1-1-0-||-2-------------2-0-|-2-------2-----2---0-|
|---2---2-2-(2)-2-2-0-||-2-2-----------2-0-|-2-------2---------0-|
|---------------------||-------------------|-0-------------------|
|-0-------------------||-----0---0-0-0-----|-----0-----0---0-----|


                            |-3-| |-3-| |-3-|       |--3--| |-3-|
  E E S S E E E E S S   E E E E E E E E E E E   E E E E a E E E E a E E
|---3---3---3-3-------|-0-0-0-0---0-----------|---0-0-0---0-----0---0----|
|-------3-----3-------|-0---3-0-3-0-----------|-----3-0---3-3---3---3----|
|-2-------2-2---2-----|-1-----------3-2-0-2-0-|-----1-1-1h2-1h2-1-1h2-0--|
|-2-------------2-0h2-|-----------------0-0---|-2---------------------0--|
|-0-------------------|-----------------------|-0---------------------0--|
|-----0-----0-0-0-----|-----------------------|--------------------------|


      |-3-| |-3-|                   |-3-| |-3-| |-3-|
  E E E E E E E E E S    +S     E E E E E E E E E E E
|-0-2-2-2-2-2-2-2-0-----------|---------------------------|
|-0---------------------------|---------------------------|
|-----------------------------|---------------------------|
|-----------------------------|---0-1-2-1-2-1-------------|
|-2---------2-----2-----------|-0-------------2-1-0-------|
|-----0-----0-----0-2b3==(2)r-|---------------------3b3.5-|


  E E    +S  S E S    +E   S S S E
|---0----(0)-0-0-----------0---0----|
|---0----(0)-0-0--------------------|
|---0tr1-(0)-1-1-2b3==(2)r---2------|
|-2--------------0-----------0---2--|
|----------------------------0------|
|-0---------------------------------|


                                          D.S. al Coda
  E E    +S  S E S     E  S  a S S E   E E a E E Q  Q
|---0----(0)-0-0-----------------0---|---0---0-0-------||
|---0----(0)-0-0-----------------0---|---0---0---------||
|---0tr1-(0)-1-1-2b3==(2)-2r---2-0---|---1-0h1---------||
|----------------0h====2--2--0h2---2-|-----------------||
|------------------------------------|-----------------||
|-0----------------------------------|-0-------0-0--0--||


  &
  E E Q  E    +E   S S E   E Q  E S     E  S  a  S  S E   E E  E E +E   Q.
|---0--------------------|---0--0-----------------------|--------------12----*|
|------------------------|---0--0---------------------0-|------7-9-(9)-------*|
|--------2b3==(2)r-2p0-1-|---1----2b3==(2)-2r-2-(2)p0-0-|-1-1/-7-9-(9)--9----*|
|-2--------------------2-|--------0h====2--2--0h=2----0-|-2-2/-7-9-(9)-------*|
|------------------------|------------------------------|--------------------*|
|-0---0------------------|-0----------------------------|--------------------*|
comments
We did not receive enough feedback on this tab! Please rate:
print report bad tab
1 2 3 4 5
I want to post or [tab]
guest
You may want to rate the tab now too:
select rating
Please do not post tabs as comments. Select "correction" instead!