Oops, an error
Loading. Please wait.

Broken Crown Tab

ver1
ver1

Whole song

Interactive

More versions @911Tabs.com
67,475 views 283 this week
15 commentsread comments
1 2 3 4 5
excellent!
x 26
Autoscroll
+/-
esc
set tempo
stop
Contributor
Hey! There's an official Ultimate Guitar app which is ideal
for learning songs when you're away from computer. Get the app
WARNING: You are trying to view
                                    content from Ultimate-Guitar.com
                                    in an unauthorized application,
                                    which is prohibited.

                                    Please use an official Ultimate
                                    Guitar Tabs application for iPhone,
                                    iPad or Android to access legitimate
                                    chords, guitar, bass, and drum tabs
                                    from Ultimate-Guitar.com database.

                                    Type "ultimate guitar tabs" in Apple
                                    App Store's or Android Market's
                                    search to find the application.
Broken Crown by Mumford and Sons
TUNING: D A D F A E
how i play broken crown, listen to song for picking pattern and timing.
i hardly play the A string when i play this song and you may or may not want to
mute the b string when playing some of the chords 
watch here:http://www.youtube.com/watch?v=cMu-tIDW2Lw
INTRO

e|---------------------------------------------------------------|
A|---------------------------------------------------------------|
F|--12--14--16----11--12--14----8---12-11-8--7----2--4--5--2--0--|
D|---------------------------------------------------------------|
A|---------------------------------------------------------------|
D|--12--12--12----10--10--10----9---9--------7----2--3--5--2--0--|


e|--------------------------------------------------|
A|--------------------------------------------------|
F|----12------11---------16---14--12----------------|
D|----0-------0-------------------0-----------------|
A|----0-------0-------------------0-----------------|
D|----12------10---------15---14--12----------------|
      Touch my mouth, And hold my tongue
I'll  never   be your   cho -sen one

    
*im not sure about this chord
e|--------------------------------------------|
A|---------1----------------------------------|
F|---------2--------------------0-------------|
D|---------0--------------------0-------------|
A|---------0--------------------0-------------|
D|-------*-2--------------------0-------------|
I'll be home, safely tucked away
You can't tempt me if... the day



then play the next verse the same as the first
e|--------------------------------------------------|
A|--------------------------------------------------|
F|----12------11-------------16---14--12------------|
D|----0-------0-----------------------0-------------|
A|----0-------0-----------------------0-------------|
D|----12------10-------------15---14--12------------|
The pull on my flesh   is   just too strong
It stifles the choice & the air in my lungs


e|--------------------------------------------|
A|---------1----------------------------------|
F|---------2-----------------------------0----|
D|---------0-----------------------------0----|
A|---------0-----------------------------0----|
D|-------*-2-----------------------------0----|
Better not to breathe than to breathe a lie
When I open my body  and  breathe  alive


then: 
e|---------------------------------------------------------------|
A|---------------------------------------------------------------|
F|--12--14--16----11--12--14----8---12-11-8--7----2--4--5--2--0--|
D|--0---0---0-----0---0---0-----0---0--0--0--0----0--0--0--0--0--|
A|--0---0---0-----0---0---0-----0---0--0--0--0----0--0--0--0--0--|
D|--12--12--12----10--10--10----9---9--9--9--7----2--3--5--2--0--|

then it does that bit from to darkness 
e |---------------------------------------------------------|
A |---------------------------------------------------------|
F |--12--11--9-----7---------5---4---2---4---2----0---------|
D |----------------0---------0---0---0---0---0----0---------|
A |----------------0---------0---0---0---0---0----0---------|
D |--12--10--8-----7---------5---3---2---3---2----0---------|
             I    will not speeaaak  oo-oof your sin
            There  is   a   waa-aay  oouutt for  him
            The mirror     shoo-ooo-ooo-ooo-oows not
           Your  values    aaa-aaa-aaa-aaa-aaare shot



e |--------------------------------------------------|
A |--------------------------------------------------|
F |----4---2---4----2----4------7---4---0--5---------|
D |----0---0---0----0----0------0---0---0--0---------|
A |----0---0---0----0----0------0---0---0--0---------|
D |----3---2---3----2----3------7---3---0--5---------|
   But oh, my heart was flawed  I knew my weakness
   So hold my hand  consign   me not to darkness
 

then STRUM like ya mean it
e|---------------------------------------------------------------|
A|---------------------------------------------------------------|
F|--12--14--16----11--12--14----8---12-11-8--7----2--4--5--2--0--|
D|--0---0---0-----0---0---0-----0---0--0--0--0----0--0--0--0--0--|
A|--0---0---0-----0---0---0-----0---0--0--0--0----0--0--0--0--0--|
D|--12--12--12----10--10--10----9---9--9--9--7----2--3--5--2--0--|


still strumming
e|--------------------------------------------------|
A|--------------------------------------------------|
F|----12--------11-------------16---14--12----------|
D|----0---------0--------------0----0---0-----------|
A|----0---------0--------------0----0---0-----------|
D|----12--------10-------------15---14--12----------|
    Crawl on my belly til the sun goes down
I'll  never  wear   your      bro-ken crown 


e|--------------------------------------------|
A|---------1----------------------------------|
F|---------2--------------------0-------------|
D|---------0--------------------0-------------|
A|---------0--------------------0-------------|
D|-------*-2--------------------0-------------|
I took the rope and..it all the way
In this twilight... speak of grace

repeat "crawl on my belly........speak of grace"

then the trumpets or whatever they are come in
still strumming
e|----------------------------|
A|----------------------------|
F|--5--7--4--2--0-------------|
D|--0--0--0--0--0-------------|
A|--0--0--0--0--0-------------|
D|--5--7--3--2--0-------------|
play that twice then play
e|-----------------------------------|
A|-----------------------------------|
F|--5--7--4--2--5--2--2--4--5--2--0--|
D|--0--0--0--0--0--0--0--0--0--0--0--|
A|--0--0--0--0--0--0--0--0--0--0--0--|
D|--5--7--3--2--5--2--2--3--5--2--0--|

back to picking this
e|--------------------------------------------------|
A|--------------------------------------------------|
F|----12--------11-------------16---14--12----------|
D|----0---------0-----------------------0-----------|
A|----0---------0-----------------------0-----------|
D|----12--------10-------------15---14--12----------|
    Crawl on my belly til the sun goes down
I'll  never  wear   your      bro-ken crown 


e|--------------------------------------------|
A|---------1----------------------------------|
F|---------2--------------------0-------------|
D|---------0--------------------0-------------|
A|---------0--------------------0-------------|
D|-------*-2--------------------0-------------|
I took the rope and..it all the way
In this twilight... seal our fate
comments
print report bad tab
15 comments total. Showing first comments.
+4 reply
alexplays wrote on November 21 2011, 06:10 pm

Tuning is in DADFAD

0 reply
Justinford wrote on September 26 2012, 10:48 pm

What is the picking pattern!?! please!

+5 reply
Quincho123 wrote on September 27 2012, 12:36 pm

I think the first part should be like this:
e|-------------------------------------------------
A|-------------------------------------------------
F|--12--14--16----11--12--14----9---12-11-9--7-----
D|-------------------------------------------------
A|-------------------------------------------------
D|--12--12--12----10--10--10----8---8--------7-----
(But i could be wrong ;))
BTW Great Tab, thank you a lot :)

I want to post or [tab]
guest
You may want to rate the tab now too:
select rating
Please do not post tabs as comments. Select "correction" instead!