Oops, an error
Loading. Please wait.

Little Lion Man Tab

ver3
ver3

Whole song

Interactive

Video

More versions @911Tabs.com
20,384 views 33 this week
no commentswrite comment
1 2 3 4 5
accurate
x 4
Autoscroll
+/-
esc
set tempo
stop
Hey! There's an official Ultimate Guitar app which is ideal
for learning songs when you're away from computer. Get the app
WARNING: You are trying to view
                                    content from Ultimate-Guitar.com
                                    in an unauthorized application,
                                    which is prohibited.

                                    Please use an official Ultimate
                                    Guitar Tabs application for iPhone,
                                    iPad or Android to access legitimate
                                    chords, guitar, bass, and drum tabs
                                    from Ultimate-Guitar.com database.

                                    Type "ultimate guitar tabs" in Apple
                                    App Store's or Android Market's
                                    search to find the application.
(Capo 5)
     E  E.  S E  E  E.  S E     E  E.  S E  E  E.  S E   
E||-----0---0-0-----0---0-0--|-----0---0-0-----0---0-0--|
C||-----0---0-0--x--0---0-0--|-----0---0-0--x--0---0-0--|
G||-----2---2-2--x--2---2-2--|-----2---2-2--x--2---2-2--|
C||-----0---0-0--x--0---0-0--|-----0---0-0--x--0---0-0--|
A||-----0---0-0--x--0---0-0--|-----0---0-0--x--0---0-0--|
C||--0--0---0-0-----0---0-0--|--0--0---0-0-----0---0-0--|


  E  E.  S E  E  E  E  E     E  E.  S E  E  E.  S E   
-----0---0-0-----0--0--0--|-----0---0-0-----0---0-0--|
-----0---0-0--x--0--0--0--|-----0---0-0--x--0---0-0--|
-----0---0-0--x--2--0--0--|-----0---0-0--x--0---0-0--|
-----0---0-0--x--0--0--2--|-----0---0-0--x--0---0-0--|
-----3---3-3--x--3--3--3--|-----3---3-3--x--3---3-3--|
--0--0---0-0-----0--0--0--|--0--0---0-0-----0---0-0--|


  E  E.  S E  E  E.  S E     E  E.  S E  E  E.  S E   
-----0---0-0-----0---0-0--|-----0---0-0-----0---0-0--|
-----0---0-0--x--0---0-0--|-----0---0-0--x--0---0-0--|
-----2---2-2--x--2---2-2--|-----2---2-2--x--2---2-2--|
-----0---0-0--x--0---0-0--|-----0---0-0--x--0---0-0--|
-----0---0-0--x--0---0-0--|-----0---0-0--x--0---0-0--|
--0--0---0-0-----0---0-0--|--0--0---0-0-----0---0-0--|


  E  E.  S E  E  E  E  E     E  E.  S E  E  E.  S E   
-----0---0-0-----0--0--0--|-----0---0-0-----0---0-0--|
-----0---0-0--x--0--0--0--|-----0---0-0--x--0---0-0--|
-----0---0-0--x--2--0--0--|-----0---0-0--x--0---0-0--|
-----0---0-0--x--0--0--2--|-----0---0-0--x--0---0-0--|
-----3---3-3--x--3--3--3--|-----3---3-3--x--3---3-3--|
--0--0---0-0-----0--0--0--|--0--0---0-0-----0---0-0--|


  E  E.  S E  E  E.  S E     E  E.  S E  E  E.  S E   
--0--0---0-0--0--0---0-0--|--0--0---0-0--0--0---0-0--|
--0--0---0-0--0--0---0-0--|--0--0---0-0--0--0---0-0--|
--2--2---2-2--2--2---2-2--|--2--2---2-2--2--2---2-2--|
--0--0---0-0--0--0---0-0--|--0--0---0-0--0--0---0-0--|
--0--0---0-0--0--0---0-0--|--0--0---0-0--0--0---0-0--|
--0--0---0-0--0--0---0-0--|--0--0---0-0--0--0---0-0--|


  E  E.  S E  E  E  E  E     E  E.  S E  E  E.  S E   
--0--0---0-0--0--0--0--0--|--0--0---0-0--0--0---0-0--|
--0--0---0-0--0--0--0--0--|--0--0---0-0--0--0---0-0--|
--0--0---0-0--0--2--0--0--|--0--0---0-0--0--0---0-0--|
--0--0---0-0--0--0--0--2--|--0--0---0-0--0--0---0-0--|
--3--3---3-3--3--3--3--3--|--3--3---3-3--3--3---3-3--|
--0--0---0-0--0--0--0--0--|--0--0---0-0--0--0---0-0--|


  E  E.  S E  E  E.  S E     E  E.  S E  E  E.  S E   
--0--0---0-0--0--0---0-0--|--0--0---0-0--0--0---0-0--|
--0--0---0-0--0--0---0-0--|--0--0---0-0--0--0---0-0--|
--2--2---2-2--2--2---2-2--|--2--2---2-2--2--2---2-2--|
--0--0---0-0--0--0---0-0--|--0--0---0-0--0--0---0-0--|
--0--0---0-0--0--0---0-0--|--0--0---0-0--0--0---0-0--|
--0--0---0-0--0--0---0-0--|--0--0---0-0--0--0---0-0--|


  E  E.  S E  E  E  E  E     E  E.  S E  E  E.  S E   
--0--0---0-0--0--0--0--0--|--0--0---0-0--0--0---0-0--|
--0--0---0-0--0--0--0--0--|--0--0---0-0--0--0---0-0--|
--0--0---0-0--0--2--0--0--|--0--0---0-0--0--0---0-0--|
--0--0---0-0--0--0--0--2--|--0--0---0-0--0--0---0-0--|
--3--3---3-3--3--3--3--3--|--3--3---3-3--3--3---3-3--|
--0--0---0-0--0--0--0--0--|--0--0---0-0--0--0---0-0--|


  E  E.  S E  E  E.  S E     E  E.  S E  E  E.  S E   
--0--0---0-0--0--0---0-0--|--0--0---0-0--0--0---0-0--|
--0--0---0-0--0--0---0-0--|--0--0---0-0--0--0---0-0--|
--2--2---2-2--2--2---2-2--|--2--2---2-2--2--2---2-2--|
--0--0---0-0--0--0---0-0--|--0--0---0-0--0--0---0-0--|
--0--0---0-0--0--0---0-0--|--0--0---0-0--0--0---0-0--|
--0--0---0-0--0--0---0-0--|--0--0---0-0--0--0---0-0--|


  E  E.  S E  E  E  E  E     E  E.  S E  E  E.  S E   
--0--0---0-0--0--0--0--0--|--0--0---0-0--0--0---0-0--|
--0--0---0-0--0--0--0--0--|--0--0---0-0--0--0---0-0--|
--0--0---0-0--0--0--0--0--|--0--0---0-0--0--0---0-0--|
--0--0---0-0--0--0--0--0--|--0--0---0-0--0--0---0-0--|
--3--3---3-3--3--3--3--3--|--3--3---3-3--3--3---3-3--|
--0--0---0-0--0--0--0--0--|--0--0---0-0--0--0---0-0--|


  E  E.  S E  E  E.  S E     E  E.  S E  E  E.  S E   
--0--0---0-0--0--0---0-0--|--0--0---0-0--0--0---0-0--|
--0--0---0-0--0--0---0-0--|--0--0---0-0--0--0---0-0--|
--2--2---2-2--2--2---2-2--|--2--2---2-2--2--2---2-2--|
--0--0---0-0--0--0---0-0--|--0--0---0-0--0--0---0-0--|
--0--0---0-0--0--0---0-0--|--0--0---0-0--0--0---0-0--|
--0--0---0-0--0--0---0-0--|--0--0---0-0--0--0---0-0--|


  E  E.  S E  E  E  E  E     E  E.  S E  E  E.  S E   
--0--0---0-0--0--0--0--0--|--0--0---0-0--0--0---0-0--|
--0--0---0-0--0--0--0--0--|--0--0---0-0--0--0---0-0--|
--0--0---0-0--0--0--0--0--|--0--0---0-0--0--0---0-0--|
--0--0---0-0--0--0--0--0--|--0--0---0-0--0--0---0-0--|
--3--3---3-3--3--3--3--3--|--3--3---3-3--3--3---3-3--|
--0--0---0-0--0--0--0--0--|--0--0---0-0--0--0---0-0--|


   E   E.   S  E   E   E.   S  E     E  E.  S E  E  E.  S E   
---0---0----0--0---0---0----0--0--|--0--0---0-0--0--0---0-0--|
---0---0----0--0---0---0----0--0--|--0--0---0-0--0--0---0-0--|
---0---0----0--0---0---0----0--0--|--0--0---0-0--0--0---0-0--|
---0---0----0--0---0---0----0--0--|--5--0---0-0--0--0---0-0--|
--10--10---10-10--10--10---10-10--|--3--8---8-8--7--7---7-7--|
---7---7----7--7---7---7----7--7--|--5--5---5-5--4--4---4-4--|


  E  E.  S E  E  E.  S E     E  E.  S E  E  E.  S E   
--0--0---0-0--0--0---0-0--|--0--0---0-0--0--0---0-0--|
--0--0---0-0--0--0---0-0--|--0--0---0-0--0--0---0-0--|
--0--0---0-0--0--0---0-0--|--0--0---0-0--0--0---0-0--|
--0--0---0-0--0--0---0-0--|--0--0---0-0--0--0---0-0--|
--3--3---3-3--3--3---3-3--|--3--3---3-3--3--3---3-3--|
--0--0---0-0--0--0---0-0--|--0--0---0-0--0--0---0-0--|


   E   E.   S  E   E   E.   S  E     E  E.  S E  E  E.  S E   
---0---0----0--0---0---0----0--0--|--0--0---0-0--0--0---0-0--|
---0---0----0--0---0---0----0--0--|--0--0---0-0--0--0---0-0--|
---0---0----0--0---0---0----0--0--|--0--0---0-0--0--0---0-0--|
---0---0----0--0---0---0----0--0--|--5--0---0-0--0--0---0-0--|
--10--10---10-10--10--10---10-10--|--3--8---8-8--7--7---7-7--|
---7---7----7--7---7---7----7--7--|--5--5---5-5--4--4---4-4--|


  E  E.  S E  E  E.  S E     E  E.  S E  E  E.  S E     H        H         
--0--0---0-0--0--0---0-0--|--0--0---0-0--0--0---0-0--|--0--------0--------|
--0--0---0-0--0--0---0-0--|--0--0---0-0--0--0---0-0--|--0--------0--------|
--0--0---0-0--0--0---0-0--|--0--0---0-0--0--0---0-0--|--2--------0--------|
--0--0---0-0--0--0---0-0--|--0--0---0-0--0--0---0-0--|--0--------0--------|
--3--3---3-3--3--3---3-3--|--3--3---3-3--3--3---3-3--|--0--------8--------|
--0--0---0-0--0--0---0-0--|--0--0---0-0--0--0---0-0--|--0--------5--------|


  W                   H        H           W                 
--0----------------|--0--------0--------|--0----------------|
--0----------------|--0--------0--------|--0----------------|
--0----------------|--2--------0--------|--0----------------|
--0----------------|--0--------0--------|--0----------------|
--3----------------|--0--------8--------|--3----------------|
--0----------------|--0--------5--------|--0----------------|


  H        H           W                    E   E.   S  E   E   E.   S  E   
--0--------0--------|--0----------------|---0---0----0--0---0---0----0--0--|
--0--------0--------|--0----------------|---0---0----0--0---0---0----0--0--|
--2--------0--------|--0----------------|---0---0----0--0---0---0----0--0--|
--0--------0--------|--0----------------|---0---0----0--0---0---0----0--0--|
--0--------8--------|--3----------------|--10--10---10-10--10--10---10-10--|
--0--------5--------|--0----------------|---7---7----7--7---7---7----7--7--|


   W                   E  E.  S E  E  E.  S E     E  E.  S E  E  E.  S E   
---0----------------|--0--0---0-0--0--0---0-0--|--0--0---0-0--0--0---0-0--|
---0----------------|--0--0---0-0--0--0---0-0--|--0--0---0-0--0--0---0-0--|
---0----------------|--2--2---2-2--2--2---2-2--|--2--2---2-2--2--2---2-2--|
---0----------------|--0--0---0-0--0--0---0-0--|--0--0---0-0--0--0---0-0--|
--10----------------|--0--0---0-0--0--0---0-0--|--0--0---0-0--0--0---0-0--|
---7----------------|--0--0---0-0--0--0---0-0--|--0--0---0-0--0--0---0-0--|


  E  E.  S E  E  E  E  E     E  E.  S E  E  E.  S E   
--0--0---0-0--0--0--0--0--|--0--0---0-0--0--0---0-0--|
--0--0---0-0--0--0--0--0--|--0--0---0-0--0--0---0-0--|
--0--0---0-0--0--2--0--0--|--0--0---0-0--0--0---0-0--|
--0--0---0-0--0--0--0--2--|--0--0---0-0--0--0---0-0--|
--3--3---3-3--3--3--3--3--|--3--3---3-3--3--3---3-3--|
--0--0---0-0--0--0--0--0--|--0--0---0-0--0--0---0-0--|


  E  E.  S E  E  E.  S E     E  E.  S E  E  E.  S E   
--0--0---0-0--0--0---0-0--|--0--0---0-0--0--0---0-0--|
--0--0---0-0--0--0---0-0--|--0--0---0-0--0--0---0-0--|
--2--2---2-2--2--2---2-2--|--2--2---2-2--2--2---2-2--|
--0--0---0-0--0--0---0-0--|--0--0---0-0--0--0---0-0--|
--0--0---0-0--0--0---0-0--|--0--0---0-0--0--0---0-0--|
--0--0---0-0--0--0---0-0--|--0--0---0-0--0--0---0-0--|


  E  E.  S E  E  E  E  E     E  E.  S E  E  E.  S E   
--0--0---0-0--0--0--0--0--|--0--0---0-0--0--0---0-0--|
--0--0---0-0--0--0--0--0--|--0--0---0-0--0--0---0-0--|
--0--0---0-0--0--2--0--0--|--0--0---0-0--0--0---0-0--|
--0--0---0-0--0--0--0--2--|--0--0---0-0--0--0---0-0--|
--3--3---3-3--3--3--3--3--|--3--3---3-3--3--3---3-3--|
--0--0---0-0--0--0--0--0--|--0--0---0-0--0--0---0-0--|


  E  E.  S E  E  E.  S E     E  E.  S E  E  E.  S E   
--0--0---0-0--0--0---0-0--|--0--0---0-0--0--0---0-0--|
--0--0---0-0--0--0---0-0--|--0--0---0-0--0--0---0-0--|
--2--2---2-2--2--2---2-2--|--2--2---2-2--2--2---2-2--|
--0--0---0-0--0--0---0-0--|--0--0---0-0--0--0---0-0--|
--0--0---0-0--0--0---0-0--|--0--0---0-0--0--0---0-0--|
--0--0---0-0--0--0---0-0--|--0--0---0-0--0--0---0-0--|


  E  E.  S E  E  E  E  E     E  E.  S E  E  E.  S E   
--0--0---0-0--0--0--0--0--|--0--0---0-0--0--0---0-0--|
--0--0---0-0--0--0--0--0--|--0--0---0-0--0--0---0-0--|
--0--0---0-0--0--0--0--0--|--0--0---0-0--0--0---0-0--|
--0--0---0-0--0--0--0--0--|--0--0---0-0--0--0---0-0--|
--3--3---3-3--3--3--3--3--|--3--3---3-3--3--3---3-3--|
--0--0---0-0--0--0--0--0--|--0--0---0-0--0--0---0-0--|


  E  E.  S E  E  E.  S E     E  E.  S E  E  E.  S E   
--0--0---0-0--0--0---0-0--|--0--0---0-0--0--0---0-0--|
--0--0---0-0--0--0---0-0--|--0--0---0-0--0--0---0-0--|
--2--2---2-2--2--2---2-2--|--2--2---2-2--2--2---2-2--|
--0--0---0-0--0--0---0-0--|--0--0---0-0--0--0---0-0--|
--0--0---0-0--0--0---0-0--|--0--0---0-0--0--0---0-0--|
--0--0---0-0--0--0---0-0--|--0--0---0-0--0--0---0-0--|


  E  E.  S E  E  E  E  E     E  E.  S E  E  E.  S E   
--0--0---0-0--0--0--0--0--|--0--0---0-0--0--0---0-0--|
--0--0---0-0--0--0--0--0--|--0--0---0-0--0--0---0-0--|
--0--0---0-0--0--0--0--0--|--0--0---0-0--0--0---0-0--|
--0--0---0-0--0--0--0--0--|--0--0---0-0--0--0---0-0--|
--3--3---3-3--3--3--3--3--|--3--3---3-3--3--3---3-3--|
--0--0---0-0--0--0--0--0--|--0--0---0-0--0--0---0-0--|


   E   E.   S  E   E   E.   S  E     E  E.  S E  E  E.  S E   
---0---0----0--0---0---0----0--0--|--0--0---0-0--0--0---0-0--|
---0---0----0--0---0---0----0--0--|--0--0---0-0--0--0---0-0--|
---0---0----0--0---0---0----0--0--|--0--0---0-0--0--0---0-0--|
---0---0----0--0---0---0----0--0--|--5--0---0-0--0--0---0-0--|
--10--10---10-10--10--10---10-10--|--3--8---8-8--7--7---7-7--|
---7---7----7--7---7---7----7--7--|--5--5---5-5--4--4---4-4--|


  E  E.  S E  E  E.  S E     E  E.  S E  E  E.  S E   
--0--0---0-0--0--0---0-0--|--0--0---0-0--0--0---0-0--|
--0--0---0-0--0--0---0-0--|--0--0---0-0--0--0---0-0--|
--0--0---0-0--0--0---0-0--|--0--0---0-0--0--0---0-0--|
--0--0---0-0--0--0---0-0--|--0--0---0-0--0--0---0-0--|
--3--3---3-3--3--3---3-3--|--3--3---3-3--3--3---3-3--|
--0--0---0-0--0--0---0-0--|--0--0---0-0--0--0---0-0--|


   E   E.   S  E   E   E.   S  E     E  E.  S E  E  E.  S E   
---0---0----0--0---0---0----0--0--|--0--0---0-0--0--0---0-0--|
---0---0----0--0---0---0----0--0--|--0--0---0-0--0--0---0-0--|
---0---0----0--0---0---0----0--0--|--0--0---0-0--0--0---0-0--|
---0---0----0--0---0---0----0--0--|--5--0---0-0--0--0---0-0--|
--10--10---10-10--10--10---10-10--|--3--8---8-8--7--7---7-7--|
---7---7----7--7---7---7----7--7--|--5--5---5-5--4--4---4-4--|


  E  E.  S E  E  E.  S E     E  E.  S E  E  E.  S E   
--0--0---0-0--0--0---0-0--|--0--0---0-0--0--0---0-0--|
--0--0---0-0--0--0---0-0--|--0--0---0-0--0--0---0-0--|
--0--0---0-0--0--0---0-0--|--0--0---0-0--0--0---0-0--|
--0--0---0-0--0--0---0-0--|--0--0---0-0--0--0---0-0--|
--3--3---3-3--3--3---3-3--|--3--3---3-3--3--3---3-3--|
--0--0---0-0--0--0---0-0--|--0--0---0-0--0--0---0-0--|


  E  E.  S E  E  E.  S E     E  E.  S E  E  E.  S E   
--0--0---0-0--0--0---0-0--|--0--0---0-0--0--0---0-0--|
--0--0---0-0--0--0---0-0--|--0--0---0-0--0--0---0-0--|
--2--2---2-2--0--0---0-0--|--0--0---0-0--0--0---0-0--|
--0--0---0-0--0--0---0-0--|--0--0---0-0--0--0---0-0--|
--0--0---0-0--8--8---8-8--|--3--3---3-3--3--3---3-3--|
--0--0---0-0--5--5---5-5--|--0--0---0-0--0--0---0-0--|


  E  E.  S E  E  E.  S E     E  E.  S E  E  E.  S E   
--0--0---0-0--0--0---0-0--|--0--0---0-0--0--0---0-0--|
--0--0---0-0--0--0---0-0--|--0--0---0-0--0--0---0-0--|
--2--2---2-2--0--0---0-0--|--0--0---0-0--0--0---0-0--|
--0--0---0-0--0--0---0-0--|--0--0---0-0--0--0---0-0--|
--0--0---0-0--8--8---8-8--|--3--3---3-3--3--3---3-3--|
--0--0---0-0--5--5---5-5--|--0--0---0-0--0--0---0-0--|


  E  E.  S E  E  E.  S E     E  E.  S E  E  E.  S E   
--0--0---0-0--0--0---0-0--|--0--0---0-0--0--0---0-0--|
--0--0---0-0--0--0---0-0--|--0--0---0-0--0--0---0-0--|
--2--2---2-2--0--0---0-0--|--0--0---0-0--0--0---0-0--|
--0--0---0-0--0--0---0-0--|--0--0---0-0--0--0---0-0--|
--0--0---0-0--8--8---8-8--|--3--3---3-3--3--3---3-3--|
--0--0---0-0--5--5---5-5--|--0--0---0-0--0--0---0-0--|


   E   E.   S  E   E   E.   S  E      E   E.   S  E   E   E.   S  E   
---0---0----0--0---0---0----0--0--|---0---0----0--0---0---0----0--0--|
---0---0----0--0---0---0----0--0--|---0---0----0--0---0---0----0--0--|
---0---0----0--0---0---0----0--0--|---0---0----0--0---0---0----0--0--|
---0---0----0--0---0---0----0--0--|---0---0----0--0---0---0----0--0--|
--10--10---10-10--10--10---10-10--|--10--10---10-10--10--10---10-10--|
---7---7----7--7---7---7----7--7--|---7---7----7--7---7---7----7--7--|


  E  E.  S E  E  E.  S E     E  E.  S E  E  E.  S E   
--0--0---0-0--0--0---0-0--|--0--0---0-0--0--0---0-0--|
--0--0---0-0--0--0---0-0--|--0--0---0-0--0--0---0-0--|
--2--2---2-2--0--0---0-0--|--0--0---0-0--0--0---0-0--|
--0--0---0-0--0--0---0-0--|--0--0---0-0--0--0---0-0--|
--0--0---0-0--8--8---8-8--|--3--3---3-3--3--3---3-3--|
--0--0---0-0--5--5---5-5--|--0--0---0-0--0--0---0-0--|


  E  E.  S E  E  E.  S E     E  E.  S E  E  E.  S E   
--0--0---0-0--0--0---0-0--|--0--0---0-0--0--0---0-0--|
--0--0---0-0--0--0---0-0--|--0--0---0-0--0--0---0-0--|
--2--2---2-2--0--0---0-0--|--0--0---0-0--0--0---0-0--|
--0--0---0-0--0--0---0-0--|--0--0---0-0--0--0---0-0--|
--0--0---0-0--8--8---8-8--|--3--3---3-3--3--3---3-3--|
--0--0---0-0--5--5---5-5--|--0--0---0-0--0--0---0-0--|


  E  E.  S E  E  E.  S E     E  E.  S E  E  E.  S E   
--0--0---0-0--0--0---0-0--|--0--0---0-0--0--0---0-0--|
--0--0---0-0--0--0---0-0--|--0--0---0-0--0--0---0-0--|
--2--2---2-2--0--0---0-0--|--0--0---0-0--0--0---0-0--|
--0--0---0-0--0--0---0-0--|--0--0---0-0--0--0---0-0--|
--0--0---0-0--8--8---8-8--|--3--3---3-3--3--3---3-3--|
--0--0---0-0--5--5---5-5--|--0--0---0-0--0--0---0-0--|


   E   E.   S  E   E   E.   S  E      E   E.   S  E   E   E.   S  E   
---0---0----0--0---0---0----0--0--|---0---0----0--0---0---0----0--0--|
---0---0----0--0---0---0----0--0--|---0---0----0--0---0---0----0--0--|
---0---0----0--0---0---0----0--0--|---0---0----0--0---0---0----0--0--|
---0---0----0--0---0---0----0--0--|---0---0----0--0---0---0----0--0--|
--10--10---10-10--10--10---10-10--|--10--10---10-10--10--10---10-10--|
---7---7----7--7---7---7----7--7--|---7---7----7--7---7---7----7--7--|


  E  E  E  E  E  E  E  E     E  E  E  E  E  E  E  E   
-----0-----0-----0-----0--|-----0-----0-----0-----0--|
-----0-----0-----0-----0--|-----0-----0-----0-----0--|
-----2-----2-----2-----2--|-----2-----2-----2-----2--|
-----0-----0-----0-----0--|-----0-----0-----0-----0--|
-----0-----0-----0-----0--|-----0-----0-----0-----0--|
--0-----0-----0-----0-----|--0-----0-----0-----0-----|


  E  E  E  E  E  E  E  E     E  E  E  E  E  E  E  E   
-----0-----0-----0-----0--|-----0-----0-----0-----0--|
-----0-----0-----0-----0--|-----0-----0-----0-----0--|
-----0-----0-----0-----0--|-----0-----0-----0-----0--|
-----0-----0-----0-----0--|-----0-----0-----0-----0--|
-----3-----3-----3-----3--|-----3-----3-----3-----3--|
--0-----0-----0-----0-----|--0-----0-----0-----0-----|


  E  E  E  E  E  E  E  E     E  E  E  E  E  E  E  E   
-----0-----0-----0-----0--|-----0-----0-----0-----0--|
-----0-----0-----0-----0--|-----0-----0-----0-----0--|
-----2-----2-----2-----2--|-----2-----2-----2-----2--|
-----0-----0-----0-----0--|-----0-----0-----0-----0--|
-----0-----0-----0-----0--|-----0-----0-----0-----0--|
--0-----0-----0-----0-----|--0-----0-----0-----0-----|


  E  E  E  E  E  E  E  E     E  E  E  E  E  E  E  E   
-----0-----0-----0-----0--|-----0-----0-----0-----0--|
-----0-----0-----0-----0--|-----0-----0-----0-----0--|
-----0-----0-----0-----0--|-----0-----0-----0-----0--|
-----0-----0-----0-----0--|-----0-----0-----0-----0--|
-----3-----3-----3-----3--|-----3-----3-----3-----3--|
--0-----0-----0-----0-----|--0-----0-----0-----0-----|


  E  E  E  E  E  E  E  E     E  E  E  E  E  E  E  E   
-----0-----0-----0-----0--|-----0-----0-----0-----0--|
-----0-----0-----0-----0--|-----0-----0-----0-----0--|
--0--0--0--0--0--0--0--0--|--0--0--0--0--0--0--0--0--|
--2--2--2--2--2--2--2--2--|--4--4--4--4--4--4--4--4--|
--3--3--3--3--3--3--3--3--|--3--3--3--3--3--3--3--3--|
--0--0--0--0--0--0--0--0--|--0--0--0--0--0--0--0--0--|


  E  E  E  E  E  E  E  E     E  E  E  E  E  E  E  E   
-----0-----0-----0-----0--|-----0-----0-----0-----0--|
-----0-----0-----0-----0--|-----0-----0-----0-----0--|
--0--0--0--0--0--0--0--0--|--0--0--0--0--0--0--0--0--|
--7--7--7--7--7--7--7--7--|--7--7--7--7--7--7--7--7--|
--8--8--8--8--8--8--8--8--|--8--8--8--8--8--8--8--8--|
--0--0--0--0--0--0--0--0--|--0--0--0--0--0--0--0--0--|


  E  E  E  E  E  E  E  E     E  E  E  E  E  E  E  E   
-----0-----0-----0-----0--|-----0-----0-----0-----0--|
-----0-----0-----0-----0--|-----0-----0-----0-----0--|
--0--0--0--0--0--0--0--0--|--0--0--0--0--0--0--0--0--|
--2--2--2--2--2--2--2--2--|--4--4--4--4--4--4--4--4--|
--3--3--3--3--3--3--3--3--|--3--3--3--3--3--3--3--3--|
--0--0--0--0--0--0--0--0--|--0--0--0--0--0--0--0--0--|


  E  E  E  E  E  E  E  E     E  E  E  E  E  E  E  E   
-----0-----0-----0-----0--|-----0-----0-----0-----0--|
-----0-----0-----0-----0--|-----0-----0-----0-----0--|
--0--0--0--0--0--0--0--0--|--0--0--0--0--0--0--0--0--|
--7--7--7--7--7--7--7--7--|--7--7--7--7--7--7--7--7--|
--8--8--8--8--8--8--8--8--|--8--8--8--8--8--8--8--8--|
--0--0--0--0--0--0--0--0--|--0--0--0--0--0--0--0--0--|


  E  E  E  E  E  E  E  E     E  E  E  E  E  E  E  E   
-----0-----0-----0-----0--|-----0-----0-----0-----0--|
-----0-----0-----0-----0--|-----0-----0-----0-----0--|
--0--0--0--0--0--0--0--0--|--0--0--0--0--0--0--0--0--|
--2--2--2--2--2--2--2--2--|--4--4--4--4--4--4--4--4--|
--3--3--3--3--3--3--3--3--|--3--3--3--3--3--3--3--3--|
--0--0--0--0--0--0--0--0--|--0--0--0--0--0--0--0--0--|


  E  E  E  E  E  E  E  E     E  E  E  E  E  E  E  E   
-----0-----0-----0-----0--|-----0-----0-----0-----0--|
-----0-----0-----0-----0--|-----0-----0-----0-----0--|
--0--0--0--0--0--0--0--0--|--0--0--0--0--0--0--0--0--|
--7--7--7--7--7--7--7--7--|--7--7--7--7--7--7--7--7--|
--8--8--8--8--8--8--8--8--|--8--8--8--8--8--8--8--8--|
--0--0--0--0--0--0--0--0--|--0--0--0--0--0--0--0--0--|


  E  E  E  E  E  E  E  E     E  E  E  E  E  E  E  E   
-----0-----0-----0-----0--|-----0-----0-----0-----0--|
-----0-----0-----0-----0--|-----0-----0-----0-----0--|
--0--0--0--0--0--0--0--0--|--0--0--0--0--0--0--0--0--|
--2--2--2--2--2--2--2--2--|--4--4--4--4--4--4--4--4--|
--3--3--3--3--3--3--3--3--|--3--3--3--3--3--3--3--3--|
--0--0--0--0--0--0--0--0--|--0--0--0--0--0--0--0--0--|


  E  E  E  E  E  E  E  E     E  E  E  E  E  E  E  E   
-----0-----0-----0-----0--|-----0-----0-----0-----0--|
-----0-----0-----0-----0--|-----0-----0-----0-----0--|
--0--0--0--0--0--0--0--0--|--0--0--0--0--0--0--0--0--|
--7--7--7--7--7--7--7--7--|--7--7--7--7--7--7--7--7--|
--8--8--8--8--8--8--8--8--|--8--8--8--8--8--8--8--8--|
--0--0--0--0--0--0--0--0--|--0--0--0--0--0--0--0--0--|


  E  E  E  E  E  E  E  E     E  E  E  E  E  E  E  E   
-----0-----0-----0-----0--|-----0-----0-----0-----0--|
-----0-----0-----0-----0--|-----0-----0-----0-----0--|
--0--0--0--0--0--0--0--0--|--0--0--0--0--0--0--0--0--|
--2--2--2--2--2--2--2--2--|--4--4--4--4--4--4--4--4--|
--3--3--3--3--3--3--3--3--|--3--3--3--3--3--3--3--3--|
--0--0--0--0--0--0--0--0--|--0--0--0--0--0--0--0--0--|


  E  E  E  E  E  E  E  E     E  E  E  E  E  E  E  E   
-----0-----0-----0-----0--|-----0-----0-----0-----0--|
-----0-----0-----0-----0--|-----0-----0-----0-----0--|
--0--0--0--0--0--0--0--0--|--0--0--0--0--0--0--0--0--|
--7--7--7--7--7--7--7--7--|--7--7--7--7--7--7--7--7--|
--8--8--8--8--8--8--8--8--|--8--8--8--8--8--8--8--8--|
--0--0--0--0--0--0--0--0--|--0--0--0--0--0--0--0--0--|


  E  E  E  E  E  E  E  E     E  E  E  E  E  E  E  E   
-----0-----0-----0-----0--|-----0-----0-----0-----0--|
-----0-----0-----0-----0--|-----0-----0-----0-----0--|
--0--0--0--0--0--0--0--0--|--0--0--0--0--0--0--0--0--|
--2--2--2--2--2--2--2--2--|--4--4--4--4--4--4--4--4--|
--3--3--3--3--3--3--3--3--|--3--3--3--3--3--3--3--3--|
--0--0--0--0--0--0--0--0--|--0--0--0--0--0--0--0--0--|


  E  E  E  E  E  E  E  E     E  E  E  E  E  E  E  E   
-----0-----0-----0-----0--|-----0-----0-----0-----0--|
-----0-----0-----0-----0--|-----0-----0-----0-----0--|
--0--0--0--0--0--0--0--0--|--0--0--0--0--0--0--0--0--|
--7--7--7--7--7--7--7--7--|--7--7--7--7--7--7--7--7--|
--8--8--8--8--8--8--8--8--|--8--8--8--8--8--8--8--8--|
--0--0--0--0--0--0--0--0--|--0--0--0--0--0--0--0--0--|


  E  E  E  E  E  E  E  E     E  E  E  E  E  E  E  E   
-----0-----0-----0-----0--|-----0-----0-----0-----0--|
-----0-----0-----0-----0--|-----0-----0-----0-----0--|
--0--0--0--0--0--0--0--0--|--0--0--0--0--0--0--0--0--|
--2--2--2--2--2--2--2--2--|--4--4--4--4--4--4--4--4--|
--3--3--3--3--3--3--3--3--|--3--3--3--3--3--3--3--3--|
--0--0--0--0--0--0--0--0--|--0--0--0--0--0--0--0--0--|


  E  E  E  E  E  E  E  E     E  E  E  E  E  E  E  E   
-----0-----0-----0-----0--|-----0-----0-----0-----0--|
-----0-----0-----0-----0--|-----0-----0-----0-----0--|
--0--0--0--0--0--0--0--0--|--0--0--0--0--0--0--0--0--|
--7--7--7--7--7--7--7--7--|--7--7--7--7--7--7--7--7--|
--8--8--8--8--8--8--8--8--|--8--8--8--8--8--8--8--8--|
--0--0--0--0--0--0--0--0--|--0--0--0--0--0--0--0--0--|


  E  E  E  E  E  E  E  E     E  E  E  E  E  E  E  E   
-----0-----0-----0-----0--|-----0-----0-----0-----0--|
-----0-----0-----0-----0--|-----0-----0-----0-----0--|
--0--0--0--0--0--0--0--0--|--0--0--0--0--0--0--0--0--|
--2--2--2--2--2--2--2--2--|--4--4--4--4--4--4--4--4--|
--3--3--3--3--3--3--3--3--|--3--3--3--3--3--3--3--3--|
--0--0--0--0--0--0--0--0--|--0--0--0--0--0--0--0--0--|


  E  E  E  E  E  E  E  E     E  E  E  E  E  E  E  E     Q    H.            
-----0-----0-----0-----0--|-----0-----0-----0-----0--|--0-----------------|
-----0-----0-----0-----0--|-----0-----0-----0-----0--|--0-----------------|
--0--0--0--0--0--0--0--0--|--0--0--0--0--0--0--0--0--|--2-----------------|
--7--7--7--7--7--7--7--7--|--7--7--7--7--7--7--7--7--|--0-----------------|
--8--8--8--8--8--8--8--8--|--8--8--8--8--8--8--8--8--|--0-----------------|
--0--0--0--0--0--0--0--0--|--0--0--0--0--0--0--0--0--|--0-----------------|


  E  E.  S E  E  E.  S E     E  E.  S E  E  E.  S E   
--0--0---0-0--0--0---0-0--|--0--0---0-0--0--0---0-0--|
--0--0---0-0--0--0---0-0--|--0--0---0-0--0--0---0-0--|
--0--0---0-0--0--0---0-0--|--2--2---2-2--0--0---0-0--|
--0--0---0-0--0--0---0-0--|--0--0---0-0--0--0---0-0--|
--3--3---3-3--3--3---3-3--|--0--0---0-0--8--8---8-8--|
--0--0---0-0--0--0---0-0--|--0--0---0-0--5--5---5-5--|


  E  E.  S E  E  E.  S E     E  E.  S E  E  E.  S E   
--0--0---0-0--0--0---0-0--|--0--0---0-0--0--0---0-0--|
--0--0---0-0--0--0---0-0--|--0--0---0-0--0--0---0-0--|
--0--0---0-0--0--0---0-0--|--2--2---2-2--0--0---0-0--|
--0--0---0-0--0--0---0-0--|--0--0---0-0--0--0---0-0--|
--3--3---3-3--3--3---3-3--|--0--0---0-0--8--8---8-8--|
--0--0---0-0--0--0---0-0--|--0--0---0-0--5--5---5-5--|


  E  E.  S E  E  E.  S E      E   E.   S  E   E   E.   S  E   
--0--0---0-0--0--0---0-0--|---0---0----0--0---0---0----0--0--|
--0--0---0-0--0--0---0-0--|---0---0----0--0---0---0----0--0--|
--0--0---0-0--0--0---0-0--|---0---0----0--0---0---0----0--0--|
--0--0---0-0--0--0---0-0--|---0---0----0--0---0---0----0--0--|
--3--3---3-3--3--3---3-3--|--10--10---10-10--10--10---10-10--|
--0--0---0-0--0--0---0-0--|---7---7----7--7---7---7----7--7--|


   E   E.   S  E   E   E.   S  E     Q    H.                                
---0---0----0--0---0---0----0--0--|--0-----------------|-------------------|
---0---0----0--0---0---0----0--0--|--0-----------------|-------------------|
---0---0----0--0---0---0----0--0--|--2-----------------|-------------------|
---0---0----0--0---0---0----0--0--|--0-----------------|-------------------|
--10--10---10-10--10--10---10-10--|--0-----------------|-------------------|
---7---7----7--7---7---7----7--7--|--0-----------------|-------------------|




                                          ^                  
                                          W                  
-------------------|-------------------|--0----------------||
-------------------|-------------------|--0----------------||
-------------------|-------------------|--0----------------||
-------------------|-------------------|--0----------------||
-------------------|-------------------|--3----------------||
-------------------|-------------------|--0----------------||




Duration Legend
---------------
W - whole
H - half
Q - quarter
E - 8th
S - 16th
T - 32nd
X - 64th
. - note dotted
|-n-|  - n-tuplets
comments
print report bad tab
I want to post or [tab]
guest
You may want to rate the tab now too:
select rating
Please do not post tabs as comments. Select "correction" instead!