Oops, an error
Loading. Please wait.

Sigh No More Chords

ver1
ver1

Album

Interactive

More versions @911Tabs.com
57,507 views 102 this week
4 commentsread comments
1 2 3 4 5
worth learning
x 11
Autoscroll
+/-
esc
set tempo
stop
Contributor
Hey! There's an official Ultimate Guitar app which is ideal
for learning songs when you're away from computer. Get the app
WARNING: You are trying to view
                                    content from Ultimate-Guitar.com
                                    in an unauthorized application,
                                    which is prohibited.

                                    Please use an official Ultimate
                                    Guitar Tabs application for iPhone,
                                    iPad or Android to access legitimate
                                    chords, guitar, bass, and drum tabs
                                    from Ultimate-Guitar.com database.

                                    Type "ultimate guitar tabs" in Apple
                                    App Store's or Android Market's
                                    search to find the application.
Artist: Mumford And Sons
Album: Sigh No More
Tracks: (I realize these are not in the correct album order. I apologize)
   Little Lion Man
   The Cave
   White Blank Page
   Winter Winds
   Roll Away Your Stone
   After The Storm
   Awake My Soul
   Sigh No More
   Thistle And Weeds
   I Gave You All


-------------------------------------------------------------------------

Little Lion Man

Capo at 5

Intro:   (Listen for rhythm and strumming pattern)

Am      C       x4

(To emulate banjo play   Am    Am-add6     Am    C    the last two times)

Verse 1:
Am
Weep for yourself, my man,
                               C
you'll never be what is in your heart.
Am
Weep little lion man,
                                       C
you're not as brave as you were at the start.
G
Rate yourself and rape yourself,
F            Fmaj7            C
take all the courage you have left.
G
Wasted on fixing all the
F                Fmaj7             C
problems that you made in your own head.

Chorus: (Sustain C chord)

         Am          F          C
But it was not your fault but mine,
         Am         F         C
and it was your heart on the line.
         Am        F        C
I really fucked it up this time,
             G
didn't I, my dear?
                  Am
Didn't I, my dear?


Am    C     x2


Verse 2:
Am
Tremble for yourself my man,
                                       C
you know that you have seen this all before.
Am
Tremble little lion man,
                                C
you'll never settle any of your scores.
G
Your grace is wasted in your face,
     F               Fmaj7            C
your boldness stands alone among the wreck.
G
Learn from your mother or else
F               Fmaj7            C
spend your days biting your own neck.


Chorus:
         Am          F          C
But it was not your fault but mine,
         Am         F         C
and it was your heart on the line.
         Am        F        C
I really fucked it up this time,
             G
didn't I, my dear?
         Am          F          C
But it was not your fault but mine,
         Am         F         C
and it was your heart on the line.
         Am        F        C
I really fucked it up this time,
             G
didn't I, my dear?
                  Am
Didn't I, my dear?

Am    C    x2


Bridge:

G     C      F       x8

(Sing "aaah"s times 3-8)


Chorus:
         Am (Mute)              C
But it was not your fault but mine,
         Am         F         C
and it was your heart on the line.
         Am        F        C
I really fucked it up this time,
             G
didn't I, my dear?
         Am (Mute)
But it was not your fault but mine,

and it was your heart on the line.

I really fucked it up this time,

didn't I, my dear?
                 C
Didn't I, my dear?

-------------------------------------------------------------------------

The Cave

Capo: 4th Fret

                  Am             C
It's empty in the valley of your heart
                  Am            C
The sun, it rises slowly as you walk
                  Am
Away from all the fears
            C             G    C       
And all the faults you've left behind

                    Am              C
The harvest left no food for you to eat
                  Am              C
You cannibal, you meat-eater, you see
                    Am
But I have seen the same
           C        G    C
I know the shame in your defeat

    C      F       C  
But I will hold on hope
    C       F       C  
And I won't let you choke
F            C           G
On the noose around your neck

    Am        F           C
And I'll find strength in pain
    Am     F         C
And I will change my ways
F            C                   G
I'll know my name as it's called again

             Am                      C 
Cause I have other things to fill my time
                 Am                  C
You take what is yours and I'll take mine
                  Am
Now let me at the truth
           Am         G      C
Which will refresh my broken mind

               Am                C 
So tie me to a post and block my ears
          Am                            C 
I can see widows and orphans through my tears
                          Am
I know my call despite my faults
    C          G       C 
And despite my growing fears

    C      F       C  
But I will hold on hope
    C       F       C  
And I won't let you choke
F            C           G
On the noose around your neck

    Am        F           C
And I'll find strength in pain
    Am     F         C
And I will change my ways
F            C                   G
I'll know my name as it's called again

                    Am                   C 
So come out of your cave walking on your hands
                  Am             C 
And see the world hanging upside down
                   Am
You can understand dependence
         C        G       C 
When you know the maker's hand

   C         F       C  
So make your siren's call
    C    F       C  
And sing all you want
  F        C             G
I will not hear what you have to say

      Am     F       C  
Cause I need freedom now
   Am F            C  
And I need to know how
   F       C            G 
To live my life as it's meant to be

    C      F       C  
But I will hold on hope
    C       F       C  
And I won't let you choke
F            C           G
On the noose around your neck

    Am        F           C
And I'll find strength in pain
    Am     F         C
And I will change my ways
F            C                   G
I'll know my name as it's called again

-------------------------------------------------------------------------

White Blank Page

INTRO
8 counts of Am then 4 counts each of F and then C
Am..............F, C,F,C ........Am...............F,C,F,C


Am
Can you lie next to her,
                        F          C          F           C
and give her your heart,     your heart,
                           Am
as well as your body,

and can you lie close to her,
                          F      C          F      C
and profess your love,  your love, 
                        Am
as well as your folly,

and can you kneel before the king,
                 F       C       F         C
and say i'm clean,   i'm clean.

     G           Am             F              G
But tell me now where was my fault,
   G          Am          F                G
In loving you with my whole heart,
   G           Am               F              G
Oh tell me now where was my fault,
  G        Am            F               G
In loving you with my whole heart.


Am............................F, C, F, C, G, Am.......

Am
A white blank page,
                        F   C       F     C
And a swelling rage,     rage,
Am
You did not think,

When you sent me,
          F       C           F     C
To the brink,     the brink,
Am
You desired my attention,
                       F           C           F              C
But denied my affections, my affections.

CHORUS

So, tell me now where was my fault,
In loving you with my whole heart.
Oh tell, me now where was my fault,
In loving you with my whole heart.

G          Am          F                G
Ahhh, ahhh, ah ahhhh ah ahhhhh.....
G            Am      F               G
Lead me to the truth and i,
   G                 Am        F                 G
Will follow you with my whole lie,
G             Am       F             G
Lead me to the truth and i,
    G               Am          F               G             Am    
Will follow you with my whole lie.... 

-------------------------------------------------------------------------

Winter Winds

INTRO:

  C    G    Am     F (x2)

VERSE 1:

        C     G            Am                 F
As the winter winds litter London with lonely hearts
        C             G              Am         F
Oh the warmth in your eyes swept me into your arms
        C                    G           Am             F
Was it love or fear of the cold that led us through the night?
    C               G                 Am         F
For every kiss your beauty trumped my doubt


CHORUS:

       F            C
And my head told my heart
 F    C    G  
"Let love grow"
       F             C
But my heart told my head
  F    C   G                 C
"This time no, this time no..."


VERSE 2:

           C        G          Am     F
We'll be washed and buried one day my girl
         C          G              Am             F
And the time we were given will be left for the world
     C                    G            Am          F
The flesh that lived and loved will be eaten by plague
    C                  G         Am        F
So let the memories be good for those who stay... hey!


CHORUS:

       F            C
And my head told my heart
 F    C    G  
"Let love grow"
       F             C
But my heart told my head
  F    C   G                 C
"This time no, this time no..."



VERSE 3:  (Strum chords only once)

       C                  G            Am              F
Oh the shame that sent me off from the God that I once loved
        C          G       Am       F
Was the same that sent me into your arms
       C             G                Am            F
Oh and pestilence is won when you are lost and I am gone
       C        G         Am    F
And no hope, no hope will overcome


(Bring back to normal strumming)
            C      G          Am    F
And if your strife strikes at your sleep
           C     G      Am        F
Remember spring swaps snow for leaves
  C        G          Am       F
You'll be happy and wholesome again
         C     G         Am     F
When the city clears and sun ascends... hey!

PAUSE

SOLO: 

  C        G          Am       F  (x2)


CHORUS:

       F            C
And my head told my heart
 F    C    G  
"Let love grow"
       F             C
But my heart told my head
  F    C   G                 
"This time no..."

       F            C
And my head told my heart
 F    C    G  
"Let love grow"
       F             C
But my heart told my head
  F    C   G                 C
"This time no, this time no..."


-------------------------------------------------------------------------

Roll Away Your Stone

Capo 2

Intro (x2)
E ||-----0--2-----2--2/3--2--0--------0\2-----------0--0----|
B ||--3-------------------------3--3----------0--3----------|
G ||-----------2---------------------------2----------------|
D ||--------------------------------------------------------|
A ||--------------------------------------------------------|
E ||--------------------------------------------------------|
                                                            |
E ||-----0--2-----2--2/3--2--0--------0\2-----------0-------|
B ||--3-------------------------3--3----------0--3-----3--3-|
G ||-----------2---------------------------2----------------|
D ||--------------------------------------------------------|
A ||--------------------------------------------------------|
E ||--------------------------------------------------------|


Verse 1
D                G                     D
Roll away your stone I will roll away mine

D                G                D
Together we can see what we will find

D                G            D
Don't leave me alone at this time

A                   G                      D
For I am afraid of what I will discover inside

D


Verse 2
D                G                  D
You told me that I wouldn't find a home

D                    G               D
Beneath the fragile substance of my soul

D                       G                  D
And I have filled this void with things unreal

A                      G            D
And all the while my character it steals


Chorus
Bm             G                     D
Darkness is a harsh term don't you think

G           A                  D
Yet it dominates the things I see


Verse 3
D                      G                D
It seems that all my bridges have been burned

D                     G                           D
But you say 'That's exactly how this grace thing works

D                       G                          D
It's not the long walk home that will change this heart

A                    G                 D
But the welcome I receive with every start


Chorus (x2)
Bm             G                     D
Darkness is a harsh term don't you think

G           A                  D
Yet it dominates the things I see

D
A  G  D
D
G  A  D (let ring)


D  G   A         D
Stars hide your fires

D                  G     D
For these here are my desires

    G                 A
And I won't give them up to you this time around

    D(G)A       D
And so I'll be found

D                   G         D
With my stake stuck in this ground 

G                     A                          D
Marking the territory of this newly impassioned soul

G          D
Hide your fires

D                  G     D
For these here are my desires

    G                 A
And I won't give them up to you this time around

    D(G)A       D
And so I'll be found

D                   G         D
With my stake stuck in this ground 

G                     A                          D
Marking the territory of this newly impassioned soul

G A D
G A D
G D A (let ring)


     D           G        A        D
And you, you've gone too far this time

     G            A           D
You have neither reason nor rhyme

       G       A         G               A          D (let ring)
With which to take this soul that is so rightfully mine

-------------------------------------------------------------------------

After The Storm

Intro:  G

     G    C   D        G
And after the storm,
  G       C          D     G
I run and run as the rains come

Em	   G   C	  D
And I look up, And I look up,
Em    G         C	D
on my knees and out of luck,
Em	D
I look up.
    
G         C      D         G 
Night has always pushed up day
G   G         C       D   G  
You must know life to see decay

Em          G    C       D
But I won't rot, I won't rot
Em       G        C        D
Not this mind and not this heart,
Em      D
I won't rot.

G  	       D      Em
And I took you by the hand
C            G
And we stood tall,

G              D       Em 
And remembered our own land,
C             G
What we lived for.

Chorus
    C	              Em   	   G	     C       G
And there will come a time, you'll see, with no more tears.
    C             Em         G              C         G 
And love will not break your heart, but dis-miss your fears.
    C         Em       G        C        G
Get over your hill and see what you find there,
     C             Em        G            C       G
With grace in your heart and flow....wers in your hair.


G   G     C        D      G
And now I cling to what I knew
  G   C       D        G
I saw exactly what was true

    Em    G           C     D
But oh no more,That's why I hold,
       Em    G         C     D
That's why I hold with all I have.
       Em   D
That's why I hold.

    G      D   Em 
And I will die alone
    C       G 
and be left there.
       G          D       Em
Well I guess I'll just go home,
   C         G
Oh God knows where.
        G        D       Em
Because death is just so full
    C       G
and mine so small.
    G         D      Em 
I'm scared of what's behind
    C      G
and what's before.

Chorus
    C	              Em   	   G	     C       G
And there will come a time, you'll see, with no more tears.
    C             Em         G              C         G 
And love will not break your heart, but dis-miss your fears.
    C         Em       G        C        G
Get over your hill and see what you find there,
     C             Em        G            C       G
With grace in your heart and flow....wers in your hair.

Chorus
    C	              Em   	   G	     C       G
And there will come a time, you'll see, with no more tears.
    C             Em         G              C         G 
And love will not break your heart, but dis-miss your fears.
    C         Em       G        C        G
Get over your hill and see what you find there,
     C             Em        G            C       G
With grace in your heart and flow....wers in your hair.

-------------------------------------------------------------------------

Awake My Soul

Capo 2

Intro:
[-------------------------------|
[1-1-1-1-1-1-1-1-1-1-1-1-1-1-1-1|
[-0-0-0-2-0-0-0-2-0-0-0-2-0-0-0-|
[-------------------------------|
[-------------------------------|
[-------------------------------|

C                           F        C
How fickle my heart and how woozy my eyes
C                       F            C
I struggle to find any truth in your lies
C                            F              C
And now my heart stumbles on things I don't know
C                           F       C
This weakness I feel I must finally show

C                            F           C
Lend me your hand and we'll conquer them all
C                               F            C
But lend me your heart and I'll just let you fall
C                       F               C
Lend me your eyes I can change what you see
C                            F       C
But your soul you must keep, totally free
C   F    F   C    C   F C
Har har, har har, har har, har har

         Am             C     F                       C
In these bodies we will live, in these bodies we will die
          F           C     Am              C
Where you invest your love, you invest your life
         Am             C     F                       C
In these bodies we will live, in these bodies we will die
          F           C     Am              C
Where you invest your love, you invest your life

Am       C     Am       C
Awake my soul, awake my soul
Am       C
Awake my soul
Am  G    F    C  Am   G    
 C
You were made to meet your maker
Am       C     Am       C
Awake my soul, awake my soul
Am       C
Awake my soul
Am  G    F    C  Am   G    
 C
You were made to meet your maker
Am  G    F    C  Am   G    
 C
You were made to meet your maker

-------------------------------------------------------------------------

Sigh no more

C riff (picked)
     C  *  *
||---0--0--0-----|
||---5--3--1-----|
||---0--0--0-----|
||---2--2--2-----|
||---3--3--3-----|
||---------------|

C	*		*
Serve God love me and men
C	*		*
This is not the end
C	*		*
Lived unbruised we are friends
Am        C
And I'm sorry
Am    C
I'm sorry

Sigh no more, no more
One foot in sea one on shore
My heart was never pure
And you know me
And you know me

Am            F	      C
And man is a giddy thing
Am            F      C
Oh man is a giddy thing
Am            F      C
Oh man is a giddy thing
Am            F	      C
Oh man is a giddy thing

G                   C                     G
Love that will not betray you, dismay or enslave you,
        Am   G   F
It will set you free
                 C            Am G  C
Be more like the man you were made to be.
G            C                     G
There is a design, An alignment to cry,
        Am   G   F
At my heart you see,
               C              Am   G  C
The beauty of love as it was made to be (x4)

-------------------------------------------------------------------------

Thistle & Weeds

Tuning: Drop D

Intro/Verse [0:10]
e|--------------------------------------------------------------------------|
B|-15-----15---10-----10---8-----8---10-----10---15-----15---10-----10---8--|
G|--------------------------------------------------------------------------|
D|--------------------------------------------------------------------------|
A|--------------------------------------------------------------------------|
D|-12--12------7--7--------5--5------7--7--------12--12------7--7--------5--|

e|--------------------------------------------------------------------------|
B|----8---10-----10---8-----8---8-----8---8-----8---8-----8---3-----3---3---|
G|--------------------------------------------------------------------------|
D|--------------------------------------------------------------------------|
A|--------------------------------------------------------------------------|
D|-5------7--7--------5--5------5--5------5--5------5--5------0--0------0--0|

e|-----------------------|
B|-3---3-----3---3-----3-|
G|-----------------------|    3x
D|-----------------------|
A|-----------------------|
D|-----0--0------0--0----|

Bridge [1:04]
e|--------------------------------------------------------------------------|
B|--15-------15---13-------10---12-------12---11-------11---10-------10---8-|
G|--------------------------------------------------------------------------|
D|--------------------------------------------------------------------------|
A|--------------------------------------------------------------------------|
D|--12--12--------10--10--------9--9----------8--8----------7--7----------5-|

e|-----------------------------------|
B|-----8---6-------3---5-------5---3-|
G|-----------------------------------|    2x
D|-----------------------------------|
A|-----------------------------------|
D|5--------3--3--------2--2--------0-|

[1:25]
e|--------------------------------------------------------------------------|
B|-15-----15---10-----10---8-----8---10-----10---15-----15---10-----10---8--|
G|--------------------------------------------------------------------------|
D|--------------------------------------------------------------------------|
A|--------------------------------------------------------------------------|
D|-12--12------7--7--------5--5------7--7--------12--12------7--7--------5--|

e|--------------------------------------------------------------------------|
B|----8---10-----10---8-----8---8-----8---8-----8---8-----8---3-----3---3---|
G|--------------------------------------------------------------------------|
D|--------------------------------------------------------------------------|
A|--------------------------------------------------------------------------|
D|-5------7--7--------5--5------5--5------5--5------5--5------0--0------0--0|

e|-----------------------|
B|-3---3-----3---3-----3-|
G|-----------------------|    3x
D|-----------------------|
A|-----------------------|
D|-----0--0------0--0----|

[2:16]
   d d u  d d u  d d u  d d u  d d u  d d u  d d u  d d u  d d u  d d u  d d
e|-1-1-1--0-0-0--3-3-3--1-1-1--1-1-1--0-0-0--3-3-3--1-1-1--3-3-3--3-3-3--5-5|
B|-3-3-3--3-3-3--3-3-3--3-3-3--3-3-3--3-3-3--3-3-3--3-3-3--3-3-3--3-3-3--3-3|
G|-2-2-2--2-2-2--2-2-2--2-2-2--2-2-2--2-2-2--2-2-2--2-2-2--2-2-2--2-2-2--2-2|
D|-0-0-0--0-0-0--0-0-0--0-0-0--0-0-0--0-0-0--0-0-0--0-0-0--0-0-0--0-0-0--0-0|
A|--------------------------------------------------------------------------|
D|--------------------------------------------------------------------------|

  u  d d u
e|5--5-5-5-|
B|3--3-3-3-|
G|2--2-2-2-|    6x
D|0--0-0-0-|
A|---------|
D|---------|

[3:29]
e|--------------------------------------------------------------------------|
B|--------------------------------------------------------------------------|
G|---------------------------------(tacet)----------------------------------|
D|--------------------------------------------------------------------------|
A|--------------------------------------------------------------------------|
D|--------------------------------------------------------------------------|

[3:37]
   d d u  d d u  d d u  d d u  d d u  d d u  d d u  d d u  d d u  d d u  d d
e|-3-3-3--3-3-3--5-5-5--5-5-5--1-1-1--0-0-0--3-3-3--1-1-1--1-1-1--0-0-0--3-3|
B|-3-3-3--3-3-3--3-3-3--3-3-3--3-3-3--3-3-3--3-3-3--3-3-3--3-3-3--3-3-3--3-3|
G|-2-2-2--2-2-2--2-2-2--2-2-2--2-2-2--2-2-2--2-2-2--2-2-2--2-2-2--2-2-2--2-2|
D|-0-0-0--0-0-0--0-0-0--0-0-0--0-0-0--0-0-0--0-0-0--0-0-0--0-0-0--0-0-0--0-0|
A|--------------------------------------------------------------------------|
D|--------------------------------------------------------------------------|

  u  d d u  d d u  d d u  d d u  d d u
e|3--1-1-1--3-3-3--3-3-3--5-5-5--5-5-5-|
B|3--3-3-3--3-3-3--3-3-3--3-3-3--3-3-3-|
G|2--2-2-2--2-2-2--2-2-2--2-2-2--2-2-2-|    2x
D|0--0-0-0--0-0-0--0-0-0--0-0-0--0-0-0-|
A|-------------------------------------|
D|-------------------------------------|

   d
e|--------------------------------------------------------------------------|
B|-3------------------------------------------------------------------------|
G|-0------------------------------------------------------------------------|
D|-0------------------------------------------------------------------------|
A|-0------------------------------------------------------------------------|
D|-0------------------------------------------------------------------------|

[4:13]
e|--------------------------------------------------------------------------|
B|-15-----15---10-----10---8-----8---10-----10---15-----15---10-----10---8--|
G|--------------------------------------------------------------------------|
D|--------------------------------------------------------------------------|
A|--------------------------------------------------------------------------|
D|-12--12------7--7--------5--5------7--7--------12--12------7--7--------5--|

e|--------------------------------------------------------------------------|
B|----8---10-----10---8-----8---8-----8---8-----8---8-----8---3-----3---3---|
G|--------------------------------------------------------------------------|
D|--------------------------------------------------------------------------|
A|--------------------------------------------------------------------------|
D|-5------7--7--------5--5------5--5------5--5------5--5------0--0------0--0|

e|-----------------------|
B|-3---3-----3---3-----3-|
G|-----------------------|    2x
D|-----------------------|
A|-----------------------|
D|-----0--0------0--0----|


Spare me your judgements and spare me your dreams
Cause recently mine have been tearing my seams
I sit alone in this winter clarity which clouds my mind
Alone in the wind and the rain you left me
It's getting dark darling, too dark to see
And I'm on my knees, and your faith in shreds, it seems

Corrupted by the simple sniff of riches blown
I know you have felt much more love than you've shown
And I'm on my knees and the water creeps to my chest

But plant your hope with good seeds
Don't cover yourself with thistle and weeds
Rain down, rain down on me
Look over your hills and be still
The sky above us shoots to kill
Rain down, rain down on me

But I will hold on
I will hold on hope

I begged you to hear me, there's more than flesh and bones
Let the dead bury the dead, they will come out in droves
But take the spade from my hands and fill in the holes you've made

But plant your hope with good seeds
Don't cover yourself with thistle and weeds
Rain down, rain down on me

-------------------------------------------------------------------------

I Gave You All

Tuning: open Dm   DADFAd

Chords
   Gm  Dm1 Bb  Dm2  Am  Dm3   Bb2   D/F# Gm2  Am2  C2    Dm4
d|-0---0---0---0----0---0-----3-----0----5----7----10----12-----|
A|-5---0---1---0----7---12----1-----5----5----7----10----12-----|
F|-5---0---2---0----7---12----2-----4----5----7----11----12-----|
D|-0---3---0---0----0---0-----0-----0----5----7----10----12-----|
A|-0---0---0---0----0---0-----x-----0----5----7----10----12-----|
D|-5---3--(2)--0----7---12----3-----4----5----7----10----12-----|

Inrto
Gm       Dm1      Bb             Dm2


Gm       Dm1      Bb             Dm2
Rip the earth in two with your mind
Gm      Dm1                Bb         Dm2
Seal the urge which ensues with brass wires
Gm      Dm         Am    Dm3
I never meant you any harm
Gm              Dm               Bb           Dm
But your tears feel warm as they fall on my forearm

Bb2     Dm2        D/F#        Gm
But close my eyes for a while
Bb2     Dm2        D/F#        Gm
Force from the world a patient smile


    Dm3   C   Bb3   C    F    Gm   Am   F
d|--x-----x----x----x-----x----0----0----x---|
A|--12---10----8----10----3----5----7----3---|
F|--12---11----9----11----4----5----7----4---|
D|--0----10----8----10----3----0----0----3---|
A|--0----x-----x----x-----x----0----0----x---|
D|--12---10----8----10----3----5----7----3---|

How can you say that your truth is better than ours?
Shoulder to shoulder, now brother, we carry no arms
The blind man sleeps in the doorway, his home
If only I had an enemy bigger than my apathy I could have won


Gm          Dm3   C   Bb3
But I gave you all
Bb3        Dm3      C    Bb3
I gave you all
Bb3     Dm3      C
I gave you all


Bb2     Dm1       D/F#        Gm   2x


Bb2     Dm1        D/F#       Gm
Close my eyes for a while
Bb2     Dm2         D/F#        Gm
Force from the world a patient smile


Gm          Dm3   C   Bb3
But I gave you all
Bb3     Dm3      C    Bb3
I gave you all
Bb3     Dm3      C    Bb3
I gave you all


Gm2                       Am2
But you rip it from my hands
C2                       Dm4
And you swear it's all gone
Gm2                     Am3
And you rip out all I have
C2                       Dm4
Just to say that you've won


Gm2    Dm4          C2      Bb4
Well now you've won
Bb4     Dm4          C2      Bb4
Well now you've won


Gm                Dm3   C   Bb3
But I gave you all
Bb3    Dm3   C   Bb3
I gave you all
Dm   C   Bb*
I gave you all


Outro(same as interlude, just slower)

|Dm   C     Bb    C   |  F    Gm   Am    F |

-------------------------------------------------------------------------

Not all tabs were from me. I just wanted to put this album together because 
Mumford and Sons are such a great band!! Thank you to all the people who tabbed these songs out!

(Please add The Pilgrimage on Facebook and give us a look-up!! We'd appreciate it 
so much.)

-Isaiah Barker of The Pilgrimage
comments
print report bad tab
4 comments total. Showing first comments.
0 reply
XCraigumsX wrote on September 8 2011, 08:14 am

you're also missing two songs

0 reply
Maaax1911 wrote on March 8 2012, 11:46 am

i think white blank page isnt correct, or do you need a capo?

0 reply
nash531 wrote on February 19 2013, 08:47 pm

The very first 0--2 on both lines to the intro of roll away your stone should be hammer ons

I want to post or [tab]
guest
You may want to rate the tab now too:
select rating
Please do not post tabs as comments. Select "correction" instead!