Oops, an error
Loading. Please wait.

Sigh No More Tab

ver1
ver1

Album

Whole song

Interactive

More versions @911Tabs.com
77,380 views 135 this week
2 commentsread comments
1 2 3 4 5
excellent!
x 19
Autoscroll
+/-
esc
set tempo
stop
Contributor
Difficulty
intermediate
Hey! There's an official Ultimate Guitar app which is ideal
for learning songs when you're away from computer. Get the app
WARNING: You are trying to view
                                    content from Ultimate-Guitar.com
                                    in an unauthorized application,
                                    which is prohibited.

                                    Please use an official Ultimate
                                    Guitar Tabs application for iPhone,
                                    iPad or Android to access legitimate
                                    chords, guitar, bass, and drum tabs
                                    from Ultimate-Guitar.com database.

                                    Type "ultimate guitar tabs" in Apple
                                    App Store's or Android Market's
                                    search to find the application.
This is a collection for the entire debut album 'Sigh No More' (2009) by 
Mumford and Sons. These are mostly tabs, so you can play each song in the same
 tuning as Marcus does. Here are the tracks in correct order. (***Note the 
tuning and CAPO's on some songs!)

Artist: Mumford and Sons
Album: Sigh No More
Tracks:
1. Sigh No More           (Tuning: DADGCD)
2. The Cave               (Tuning: DADF#AD  CAPO 2)
3. Winter Winds           (Tuning: EADGBE)
4. Roll Away Your Stone   (Tuning: DADF#AD  CAPO 2)
5. White Blank Page       (Tuning: EADGBE   CAPO 2)
6. I Gave You All         (Tuning: DADFAD)
7. Little Lion Man        (Tuning: EADGBE   CAPO 5)
8. Timshel                (Tuning: DADF#AD)
9. Thistle and Weeds      (Tuning: DADGBE)
10.Awake My Soul          (Tuning: DADF#AD)
11.Dustbowl Dance         (Tuning: EADGBE   CAPO 1)
12.After The Storm        (Tuning: EADGBE)

-----------------------------------------------------------------------------

1. Sigh No More
   Tuning: DADGCD
Tabbed By: Unregistered (thanks anyways!)

Intro:

    C
||------------------------------------||
||--0-0-0-0-0-0-0-0-0-0-0-0-0-0-0-0---||
||----------0-0-0-0---------0-0-0-0---||
||------------------------------------||
||--3-3-3-3-3-3-3-2-3/3-3-3-3-3-3-3---||
||------------------------------------||x2

Verse 1:

||------------------------------------||
||--0-0-0-0-0-0-0-0-0-0-0-0-0-0-0-0---||
||----------0-0-0-0---------0-0-0-0---||
||------------------------------------||
||--3-3-3-3-3-3-3-3-3-3-3-3-3-3-3-3---||
||------------------------------------||x3

    Serve God Love me and men
    This is not the end
    Live unbruised we are friends

    Am              C
||--0---------------0-----------------||
||--0-0-0-0-0-0-0-0-0-0-0-0-0-0-0-0---||
||--2---------------0-----------------||
||--2---------------2-----------------||
||--0-0-0-0-0-0-0-0-3-3-3-3-3-3-3-3---||
||------------------------------------||x2

I'm Sor-------------ry
I'm sor-------------ry

Verse 2:

||------------------------------------||
||--4-4-4-4-2-2-2-2-0-0-0-0-0-0-0-0---||
||--0-0-0-0-0-0-0-0-0-0-0-0-0-0-0-0---||
||------------------------------------||
||--3-3-3-3-3-3-3-3-3-3-3-3-3-3-3-3---||
||------------------------------------||x5 (singing starts on 3rd)

    Sigh No More No more
    On foot in sea one on shore
    My heart was never pure

        Am              C
    ||--0---------------0-----------------||
    ||--0-0-0-0-0-0-0-0-0-0-0-0-0-0-0-0---||
    ||--2---------------0-----------------||
    ||--2---------------2-----------------||
    ||--0-0-0-0-0-0-0-0-3-3-3-3-3-3-3-3---||
    ||------------------------------------||x2

And you kno---------w   me
    you kno---------w   me


||--0---------------0---------||
||--0---------------0---------||
||--2---------------0---------||
||--2-------5-------2---------||
||--0-------5-------3---------||
||----------5-----------------||x4

But man is a giddy thing
Oh man is a giddy thing 
oh man is a giddy thing
oh man is a giddy thing


Chorus:

    (palm muted)
||------------------------------------||
||------------------------------------||
||------------------------------------||
||--2-2-2-2-2-2-2-2-2-2-2-2-2-2-2-2---||
||--3-3-3-3-3-3-3-3-3-3-3-3-3-3-3-3---||
||------------------------------------||

||------------------------------------||
||--0-0-0-0-0-0-0-0-0-0-0-0-0-0-0-0---||
||--0-0-0-0-0-0-0-0-0-0-0-0-0-0-0-0---||
||--2-2-2-2-2-2-2-2-2-2-2-2-2-2-2-2---||
||--2-2-2-2-2-2-2-2-3-3-3-3-3-3-3-3---||
||------------------------------------||

Love it will not    betray you dismay or


||----------------------------------------------------||
||----------------------------------------------------||
||----------------------------------------------------||
||--5-5-5-5-5-5-5-5-7-7-7-7-5-5-5-5-3-3-3-3-3-3-3-3---||
||--5-5-5-5-5-5-5-5-7-7-7-7-5-5-5-5-3-3-3-3-3-3-3-3---||
||--5-5-5-5-5-5-5-5-7-7-7-7-5-5-5-5-3-3-3-3-3-3-3-3---||

enslave you it will   set     you     free,  be more like the

||-----------------------------------||
||---------0-0-------------0-0-------||
||0-0-0-0--2-2-------------0-0-------||
||2-2-2-2--2-2-----5-5-----2-2-------||
||3-3-3-3--0-0-----5-5-----3-3-------||
||-----------------5-5---------------||

man you were made   to      be    


And there is a design, an alignment, a cry
Of my heart to see
The beauty of love as it was made to be.


-----------------------------------------------------------------------------

2. The Cave
   Tuning: DADF#AD  CAPO 2
Tabbed By: bjerki

Intro
E ||-------------------------------------------------|
A ||-------------------------------------------------|
F#||-------------------0-------0-------0-------------|
D ||--/4--2--0-------0---0---0---0---0---0-----------|
A ||------------0--2-------2-------0-------0---------|
D ||-------------------------------------------------| x3
                                                     |
E ||-------------------------------------------------|
A ||-------------------------------------------------|
F#||------0-------0------------/5---0----------------|
D ||----0---0---0---0------0---/5---0----------------|
A ||-------------------------------------------------|
D ||--4-------0--------0-----------------------------|

Verse 1
E ||-------------------------------------------------|
A ||-------------------------------------------------|
F#||-------------------0-------0-------0-------------|
D ||--/4--2--0-------0---0---0---0---0---0-----------|
A ||------------0--2-------2-------0-------0---------|
D ||-------------------------------------------------| x3
                                                     |
E ||-------------------------------------------------|
A ||-------------------------------------------------|
F#||------0-------0------------/5---0----------------|
D ||----0---0---0---0------0---/5---0----------------|
A ||-------------------------------------------------|
D ||--4-------0--------0-----------------------------|

Verse 2
E ||-------------------------------------------------|
A ||-------------------------------------------------|
F#||-------------------0-------0-------0-------------|
D ||--/4--2--0-------0---0---0---0---0---0-----------|
A ||------------0--2-------2-------0-------0---------|
D ||-------------------------------------------------| x3
                                                     |
E ||-------------------------------------------------|
A ||-------------------------------------------------|
F#||------0-------0------------/5---0----------------|
D ||----0---0---0---0------0---/5---0---0--0--0--0---|
A ||------------------------------------0--0--0--0---|
D ||--4-------0--------0----------------0--0--0--0---|Last part is P.M

Chorus
E ||--------------------------------------------------------------------|
A ||--------------------------------------------------------------------|
F#||--------------------------------------------------------------------|
D ||-0--0--0--0--5--5--0--0--0--0--0--0--5--5--0--0--5--5--0--0---------|
A ||-0--0--0--0--5--5--0--0--0--0--0--0--5--5--0--0--5--5--0--0---------|
D ||-0--0--0--0--5--5--0--0--0--0--0--0--5--5--0--0--5--5--0--0---------|P.M
                                                                        |
E ||--------------------------------------------------------------------|
A ||--------------------------------------------------------------------|
F#||--------------------------------------------------------------------|
D ||-7--7--7--7--9--9--9--9--5--5--0--0--9--9--9--9--5--5--0--0---------|
A ||-7--7--7--7--9--9--9--9--5--5--0--0--9--9--9--9--5--5--0--0---------|
D ||-7--7--7--7--9--9--9--9--5--5--0--0--9--9--9--9--5--5--0--0---------|P.M
                                                                        |
E ||----------------------------|
A ||----------------------------|
F#||----------------------------|
D ||-5--5--0--0--7--7--7--7--7--|
A ||-5--5--0--0--7--7--7--7--7--|
D ||-5--5--0--0--7--7--7--7--7--|P.M


E ||-------------------------------------------------|
A ||-------------------------------------------------|
F#||--------------------0-------0-------0------------|
D ||--/4-4-4-2-0------0---0---0---0---0---0---0------|
A ||-------------0--2-------2-------0-------0--------|
D ||-------------------------------------------------|


E ||-------------------------------------------------|
A ||-------------------------------------------------|
F#||-------------------0--------0-------0------------|
D ||--/4--2--0-------0---0---0----0---0---0----------|
A ||------------0--2-------2--------0-------0--------|
D ||-------------------------------------------------| x2
                                                     |
E ||-------------------------------------------------|
A ||-------------------------------------------------|
F#||------0-------0-----------/5---0-----------------|
D ||----0---0---0---0------0--/5---0-----------------|
A ||-------------------------------------------------|
D ||--4-------0--------0-----------------------------|


Lyrics:
It's empty in the valley of your heart
The sun, it rises slowly as you walk
Away from all the fears
And all the faults you've left behind

The harvest left no food for you to eat
You cannibal, you meat-eater, you see
But I have seen the same
I know the shame in your defeat

But I will hold on hope
And I won't let you choke
On the noose around your neck

And I'll find strength in pain
And I will change my ways
I'll know my name as it's called again

Cause I have other things to fill my time
You take what is yours and I'll take mine
Now let me at the truth
Which will refresh my broken mind

So tie me to a post and block my ears
I can see widows and orphans through my tears
I know my call despite my faults
And despite my growing fears

But I will hold on hope
And I won't let you choke
On the noose around your neck

And I'll find strength in pain
And I will change my ways
I'll know my name as it's called again

So come out of your cave walking on your hands
And see the world hanging upside down
You can understand dependence
When you know the maker's hand

So make your siren's call
And sing all you want
I will not hear what you have to say

Cause I need freedom now
And I need to know how
To live my life as it's meant to be

And I will hold on hope
And I won't let you choke
On the noose around your neck

And I'll find strength in pain
And I will change my ways
I'll know my name as it's called again

-----------------------------------------------------------------------------

3. Winter Winds
   Tuning: EADGBE
Tabbed By: stellafeller

(***Note: This song actually has no guitar, it is a Mandolin. You can play it with chords though!)

  G           D            Em                C
As the winter winds litter London with lonely hearts
  G           D            Em                 C
Oh the warmth in your eyes swept me into your arms
  G             D                 Em                    C
Was it love or fear of the cold that led us through the night?
    G       D       Em               C
For every kiss your beauty trumped my doubt

C                G
And my head told my heart
C      G    D
"Let love grow"
C               G
But my heart told my head
C      G    D
"This time no this time no"

 G             D            Em         C
We'll be washed and buried one day my girl
 G            D            Em                 C
And the time we were given will be left for the world
 G             D             Em                C
The flesh that lived and loved will be eaten by plague
 G              D             Em            C
So let the memories be good for those who stay


C                 G
And my head told my heart
 C     G    D
"Let love grow"     
C                G
But my heart told my head
 C     G    D
"This time no"
C                G
Yes, my heart told my head
  C     G   D
"This time no
This time no"


       G               D                Em              C
Oh the shame that sent me off from the God that I once loved
      G             D                 Em
Was the same that sent me into your arms
      G               D               Em             C
Oh and pestilence is won when you are lost and I am gone
    G          D           Em
And no hope, no hope will overcome

    G          D          Em         C
And if your strife strikes at your sleep
    G         D          Em      C
Remember spring swaps snow for leaves
    G         D          Em       C
You'll be happy and wholesome again
    G          D         Em       C
When the city clears and sun ascends




C                G
And my head told my heart
  C    G    D
"Let love grow"
C                G
But my heart told my head
  C     G   D
"This time no"
 C                G
And my head told my heart
  C    G    D
"Let love grow"
C                   G
But my heart told my head
  C    G    D
"This time no

This time no" 

-----------------------------------------------------------------------------

4. Roll Away Your Stone
   Tuning: DADF#AD  CAPO 2
Tabbed By: bjerki

E - 000xxx
A - 555xxx
B - 777xxx
C# - x245xxx or 999xxx
E2 - 121212xxx

Intro
E ||--0h2p0------2p3--3p2p0--0h2p0--------0--0-------|
A ||---------0----------------------0h2h5------------|
F#||-------------------------------------------------|
D ||-------------------------------------------------|
A ||--------------------------------------0--0-------|
D ||--0------0---0----0------0------0----------------|
                                                     |
E ||--0h2p0------2/3--3\2p0--0h2p0---------0---------|
A ||---------0----------------------0h2h5-----5--5---|
F#||-------------------------------------------------|
D ||-------------------------------------------------|
A ||---------------------------------------0---------|
D ||--0------0---0----0------0------0---------0--0---|x2


E ||-------------------------------------------------|
A ||---5-~~------------------------------------------|
F#||---0-~~------------------------------------------|
D ||---0-~~------------------------------------------|
A ||---0-~~------------------------------------------|
D ||---0-~~------------------------------------------|

Figure 1
E ||-------------------------------------------------|
A ||-------------------------------------------------|
F#||-------------------------------------------------|
D ||---0h2p0-----0-----------------------------------|
A ||---------0h2-------------------------------------|
D ||-------------------------------------------------|

Verse 1
E              A                      E     Figure 1
Roll away your stone I will roll away mine

E               A                E    Figure 1
Together we can see what we will find

E              A             E      Figure 1
Don't leave me alone at this time

B                  A                    E
For I am afraid of what I will discover inside

E between verse

Verse 2 (same as #1)
You told me that I wouldn't find a home
Beneath the fragile substance of my soul
And I have filled this void with things unreal
And all the while my character it steals


Chorus
C#            A                    E    Figure 1
Darkness is a harsh term don't you think

C#                   A        E
Yet it dominates the things I see


Verse 3
It seems that all my bridges have been burned
But you say 'That's exactly how this grace thing works
It's not the long walk home that will change this heart
But the welcome I receive with every start

Chorus (same)
Darkness is a harsh term don't you think
And yet it dominates the things I see
Darkness is a harsh term don't you think
And yet it dominates the things I see

E
E2 B  E  Figure 1
E
E2 B  E  Figure 1

Some palm muting and then let E ring

E     A    B    E
Stars hide your fires

E   A          B      E
For these here are my desires

    A                 B
And I won't give them up to you this time around

    E  A B       E
And so I will be found

E    A        B            E
With my stake stuck in the ground 

A                     B
Marking the territory of this newly impassioned soul

E A B 4x

    E           A        B        E
And you, you've gone too far this time

    A            B          E
You have neither reason nor rhyme

     A        B         E                          E let ring
With which to take this soul that is so rightfully mine

-----------------------------------------------------------------------------

5. White Blank Page
   Tuning: EADGBE  CAPO 2
Tabbed By: freezedryfun

(***Note: This song is actually played with standard tuned guitar chords plus
the capo. Marcus, never learned guitar chords, only wrote and played by ear. 
He has commented saying that, "if he needs help with chords or something like 
that, he goes to fellow band member Ben Lovett")

Em    [0 2 2 0 0 0]
C     [0 3 2 0 1 0] Hammer on 0h2 on the D string in Verse.
G     [3 2 0 0 0 3] Hammer on 0h2 on the A string in Verse.
D/F#  [2 5 4 2 3 2] (Barre this)
Em/B  [7 7 9 9 8 7] (Barre this)


Em                                        C   G        C   G
Can you lie next to her and give her your hea-rt, your hea-rt?


Em                                                                 C   G   
As well as your body, and can you lie next to her and confess your lo-ve, 
     C  G
your lo-ve?

Em                                                                   
As well as your folly and can you kneel before the king and say ‘I’m 
C   G          C   G
cle-an’, ‘I’m Cle-an’?
     D/F#   Em/B       C      D/F#     D/F#   Em/B     C         D/F#
But tell me now where was my fault, in loving you with my whole heart?
     D/F#   Em/B       C      D/F#     D/F#   Em/B     C         D/F#
But tell me now where was my fault, in loving you with my whole heart?


Em                                C  G   C  G
Her white blank page & a swelling ra-ge, ra-ge
Em                                        C  G       C  G
You did not think when you sent me to the bri-nk, the bri-nk
Em                                       C    G      C    G
You desired my attention but denied my affec-tions, affec-tions
     D/F#   Em/B       C      D/F#     D/F#   Em/B     C         D/F#
But tell me now where was my fault, in loving you with my whole heart.
     D/F#   Em/B       C      D/F#     D/F#   Em/B     C         D/F#
But tell me now where was my fault, in loving you with my whole heart
    
     D/F#       Em/B       C      D/F#   
     Ahhh ah ah ahhh  ah ahhhh ah ahhh
     D/F#       Em/B       C      D/F#   
     Ahhh ah ah ahhh  ah ahhhh ah ahhh

The Rest is played as the chorus. Work out the timing, it's quite difficult to fit 
in with the lyrics:

Lead my to the truth and I will follow you with my whole life

Lead my to the truth and I will follow you with my whole life

Finally repeat Ahhhs

-----------------------------------------------------------------------------

6. I Gave You All
   Tuning: DADFAD
Tabbed By: NINtrentreznor

(***Note: This is played using Open D Minor tuning, so it is DADFAD - NOT - 
DADF#AD. Just to clear up any confusion!)

Picking Pattern:
|--------------|
|--------------|
|-x-----------x|
|--------x-----|
|--------------|
|-x---x-----x--|
Pick that pattern fast.

Main Riff:
|---|---|---|---|
|---|---|---|---|
|-5-|-4-|-2-|-0-|
|---|---|---|---| Play pattern 2 times at each interval. So like fingers with
|---|---|---|---| your fingers on five play the pattern twice at 5, then go
|-5-|-3-|-2-|-0-| down

Riff 1 (When I have the "x_" that's how many times you do the pattern each):
|---|---|----|----|---|---|---|---|
|---|---|----|----|---|---|---|---|
|-5-|-4-|-11-|-12-|-5-|-4-|-2-|-0-|
|---|---|----|----|---|---|---|---|
|---|---|----|----|---|---|---|---|
|-5-|-3-|-10-|-12-|-5-|-3-|-2-|-0-|
 x2  x1   x1   x2  x2  x2  x2  x2

Riff 2 (Reference NOTE section at top of tab for key):
|----|----|---|----|---|---|---|---|
|-12-|-10-|-8-|-10-|-3-|-5-|-7-|-3-|
|----|----|---|----|---|---|---|---|
|----|----|---|----|---|---|---|---|
|----|----|---|----|---|---|---|---|
|-12-|-10-|-8-|-10-|-3-|-5-|-7-|-3-|
 x2*  x1^  x2* x1^  x1^ x1^ x1^ x2

This is played exactly like the pattern except use the high F & A strings instead of the 
middle D & F strings.

Riff 3:
|---|---|---|---|---|---|---|---|
|---|---|---|---|---|---|---|---|
|-2-|-0-|-4-|-5-|-2-|-0-|-4-|-5-|
|---|---|---|---|---|---|---|---|
|---|---|---|---|---|---|---|---|
|-1-|-0-|-4-|-5-|-1-|-0-|-4-|-5-|
 x2* x1  x1  x2  x2  x2  x1  x4

Riff 4:
|---|---|----|----|---|---|----|----|---|---|----|----|---|---|----|----|---|
|---|---|----|----|---|---|----|----|---|---|----|----|---|---|----|----|---|
|-9-|-7-|-12-|-11-|-9-|-7-|-12-|-11-|-9-|-7-|-12-|-11-|-9-|-7-|-12-|-11-|-9-|
|---|---|----|----|---|---|----|----|---|---|----|----|---|---|----|----|---|
|---|---|----|----|---|---|----|----|---|---|----|----|---|---|----|----|---|
|-8-|-7-|-12-|-10-|-8-|-7-|-12-|-10-|-8-|-7-|-12-|-10-|-8-|-7-|-12-|-10-|-8-|
 x2* x1^  x2*  x2  x2* x1^  x1^  x3  x2* x1^  x1   x4  x2* x1^  x1   x1  x2*

|----|----|
|----|----|
|-12-|-11-|
|----|----|
|----|----|
|-12-|-10-|
  x1   x4

Riff 5 (Strumming Section, listen to song to time how many strums of each):
|---|---|---|---|---|---|---|----|---|---|---|----|----|
|---|---|---|---|---|---|---|----|---|---|---|----|----|
|-5-|-4-|-7-|-5-|-4-|-7-|-9-|-11-|-5-|-4-|-7-|-11-|-12-|
|-0-|-0-|-0-|-0-|-0-|-0-|-0-|-0--|-0-|-0-|-0-|-0--|-0--|
|-0-|-0-|-0-|-0-|-0-|-0-|-0-|-0--|-0-|-0-|-0-|-0--|-0--|
|-5-|-4-|-7-|-5-|-4-|-7-|-8-|-10-|-5-|-4-|-7-|-10-|-12-|

Chorus Riff (use pattern picking):
|---|---|---|
|---|---|---|
|-5-|-4-|-5-|
|---|---|---|
|---|---|---|
|-5-|-3-|-5-|
Listen to song for timing of picking.

END TAB

Layout of the song:

Intro:
  Main Riff (x2)

Verse 1:
  Main Riff (x2)
  Riff 1 (x1)
  Main Riff (x1)

Chorus ("Close my eyes for a while.."):
  Chorus Riff (x2)
  Riff 2 (x2)

Verse 2:
  Main Riff (x2)
  Riff 1 (x1
  Main Riff (x1)

Refrain ("I gave you all.."):
  Riff 4 (x1 or 2)

Chorus:
  Chorus Riff (x2, strum it)

Refrain:
  Riff 4 (strum, listen to song for timing)

Verse 3:
  Main Riff (whole way through, strumming)

Refrain:
  Riff 4 or 5 (can't exactly tell)

Outro:
  Riff 2 (picking)
  Riff 3
  Riff 2

  End with one open strum.

-----------------------------------------------------------------------------

7. Little Lion Man
   Tuning: EADGBE  CAPO 5
Tabbed By: Ornj_Gremlin

(***Note: This song has yet to truly be tabbed by anyone in its' correct form.
The chords are right and they sound fine, but he plays it CAPO 5 in an 
alternate tuning. This will have to do!)  

Intro:   (Listen for rhythm and strumming pattern)

Am      C       x4

(To emulate banjo play   Am    Am-add6     Am    C    the last two times)

Verse 1:
Am
Weep for yourself, my man,
                               C
you'll never be what is in your heart.
Am
Weep little lion man,
                                       C
you're not as brave as you were at the start.
G
Rate yourself and rape yourself,
F            Fmaj7            C
take all the courage you have left.
G
Wasted on fixing all the
F                Fmaj7             C
problems that you made in your own head.

Chorus: (Sustain C chord)

         Am          F          C
But it was not your fault but mine,
         Am         F         C
and it was your heart on the line.
         Am        F        C
I really fucked it up this time,
             G
didn't I, my dear?
                  Am
Didn't I, my dear?


Am    C     x2


Verse 2:
Am
Tremble for yourself my man,
                                       C
you know that you have seen this all before.
Am
Tremble little lion man,
                                C
you'll never settle any of your scores.
G
Your grace is wasted in your face,
     F               Fmaj7            C
your boldness stands alone among the wreck.
G
Learn from your mother or else
F               Fmaj7            C
spend your days biting your own neck.


Chorus:
         Am          F          C
But it was not your fault but mine,
         Am         F         C
and it was your heart on the line.
         Am        F        C
I really fucked it up this time,
             G
didn't I, my dear?
         Am          F          C
But it was not your fault but mine,
         Am         F         C
and it was your heart on the line.
         Am        F        C
I really fucked it up this time,
             G
didn't I, my dear?
                  Am
Didn't I, my dear?

Am    C    x2


Bridge:

G     C      F       x8

(Sing "aaah"s times 3-8)


Chorus:
         Am (Mute)              C
But it was not your fault but mine,
         Am         F         C
and it was your heart on the line.
         Am        F        C
I really fucked it up this time,
             G
didn't I, my dear?
         Am (Mute)
But it was not your fault but mine,

and it was your heart on the line.

I really fucked it up this time,

didn't I, my dear?
                 C
Didn't I, my dear?

-----------------------------------------------------------------------------

8. Timshel
   Tuning: DADF#AD
Tabbed By: Macheeoo (Chords from jacobnorton)

(***Note: The chord names below are not the actual chord names. Rather that
change everything jacbonorton has done, I just "renamed" them temporarily, 
above them are the real names in parenthesis)

   (D) (G) (A) (Bm)
    G   C   D   Em
e|--0---5---7---0------|
B|--0---5---7---0------|
G|--0---5---7---8------|
D|--0---5---7---9------|
A|--0---5---7---9------|
E|--0---5---7---9------|


G
Cold is the water
                   C
It freezes your already cold mind
                       G
Already cold, cold mind

G
And death is at your doorstep
                       C
And it will steal your innocence
                           G
But it will not steal your substance


D               C        G
But you are not alone in this
C               Em       G
And you are not alone in this
C                   D               Em   D     C   <--Walk down from Em to C
As brothers we will stand and we'll hold your hand
          G
Hold your hand

And you are the mother
The mother of your baby child
The one to whom you gave life
And you have your choices
And these are what make man great
His ladder to the stars


But you are not alone in this
And you are not alone in this
As brothers we will stand and we'll hold your hand
Hold your hand

    C  Em   D   C    G
And I will tell the night
C   Em    D     C    G
Whisper, "Lose your sight"
    C  Em   D    C   G     C       G
But I can't move the mountains for you

-----------------------------------------------------------------------------

9. Thistle and Weeds
   Tuning: DADGBE
Tabbed By: kurt peniket

Intro/Verse [0:10]
e|---------------------------------------------------------------------------|
B|-15-----15---10-----10---8-----8---10-----10---15-----15---10-----10---8---|
G|---------------------------------------------------------------------------|
D|---------------------------------------------------------------------------|
A|---------------------------------------------------------------------------|
D|-12--12------7--7--------5--5------7--7--------12--12------7--7--------5---|

e|---------------------------------------------------------------------------|
B|----8---10-----10---8-----8---8-----8---8-----8---8-----8---3-----3---3----|
G|---------------------------------------------------------------------------|
D|---------------------------------------------------------------------------|
A|---------------------------------------------------------------------------|
D|-5------7--7--------5--5------5--5------5--5------5--5------0--0------0--0-|

e|-----------------------|
B|-3---3-----3---3-----3-|
G|-----------------------|    3x
D|-----------------------|
A|-----------------------|
D|-----0--0------0--0----|

Bridge [1:04]
e|---------------------------------------------------------------------------|
B|--15-------15---13-------10---12-------12---11-------11---10-------10---8--|
G|---------------------------------------------------------------------------|
D|---------------------------------------------------------------------------|
A|---------------------------------------------------------------------------|
D|--12--12--------10--10--------9--9----------8--8----------7--7----------5--|

e|-----------------------------------|
B|-----8---6-------3---5-------5---3-|
G|-----------------------------------|    2x
D|-----------------------------------|
A|-----------------------------------|
D|5--------3--3--------2--2--------0-|

[1:25]
e|---------------------------------------------------------------------------|
B|-15-----15---10-----10---8-----8---10-----10---15-----15---10-----10---8---|
G|---------------------------------------------------------------------------|
D|---------------------------------------------------------------------------|
A|---------------------------------------------------------------------------|
D|-12--12------7--7--------5--5------7--7--------12--12------7--7--------5---|

e|---------------------------------------------------------------------------|
B|----8---10-----10---8-----8---8-----8---8-----8---8-----8---3-----3---3----|
G|---------------------------------------------------------------------------|
D|---------------------------------------------------------------------------|
A|---------------------------------------------------------------------------|
D|-5------7--7--------5--5------5--5------5--5------5--5------0--0------0--0-|

e|-----------------------|
B|-3---3-----3---3-----3-|
G|-----------------------|    3x
D|-----------------------|
A|-----------------------|
D|-----0--0------0--0----|

[2:16]
   d d u  d d u  d d u  d d u  d d u  d d u  d d u  d d u  d d u  d d u  d d
e|-1-1-1--0-0-0--3-3-3--1-1-1--1-1-1--0-0-0--3-3-3--1-1-1--3-3-3--3-3-3--5-5-|
B|-3-3-3--3-3-3--3-3-3--3-3-3--3-3-3--3-3-3--3-3-3--3-3-3--3-3-3--3-3-3--3-3-|
G|-2-2-2--2-2-2--2-2-2--2-2-2--2-2-2--2-2-2--2-2-2--2-2-2--2-2-2--2-2-2--2-2-|
D|-0-0-0--0-0-0--0-0-0--0-0-0--0-0-0--0-0-0--0-0-0--0-0-0--0-0-0--0-0-0--0-0-|
A|---------------------------------------------------------------------------|
D|---------------------------------------------------------------------------|

  u  d d u
e|5--5-5-5-|
B|3--3-3-3-|
G|2--2-2-2-|    6x
D|0--0-0-0-|
A|---------|
D|---------|

[3:29]
e|---------------------------------------------------------------------------|
B|---------------------------------------------------------------------------|
G|---------------------------------(tacet)-----------------------------------|
D|---------------------------------------------------------------------------|
A|---------------------------------------------------------------------------|
D|---------------------------------------------------------------------------|

[3:37]
   d d u  d d u  d d u  d d u  d d u  d d u  d d u  d d u  d d u  d d u  d d
e|-3-3-3--3-3-3--5-5-5--5-5-5--1-1-1--0-0-0--3-3-3--1-1-1--1-1-1--0-0-0--3-3-|
B|-3-3-3--3-3-3--3-3-3--3-3-3--3-3-3--3-3-3--3-3-3--3-3-3--3-3-3--3-3-3--3-3-|
G|-2-2-2--2-2-2--2-2-2--2-2-2--2-2-2--2-2-2--2-2-2--2-2-2--2-2-2--2-2-2--2-2-|
D|-0-0-0--0-0-0--0-0-0--0-0-0--0-0-0--0-0-0--0-0-0--0-0-0--0-0-0--0-0-0--0-0-|
A|---------------------------------------------------------------------------|
D|---------------------------------------------------------------------------|

  u  d d u  d d u  d d u  d d u  d d u
e|3--1-1-1--3-3-3--3-3-3--5-5-5--5-5-5-|
B|3--3-3-3--3-3-3--3-3-3--3-3-3--3-3-3-|
G|2--2-2-2--2-2-2--2-2-2--2-2-2--2-2-2-|    2x
D|0--0-0-0--0-0-0--0-0-0--0-0-0--0-0-0-|
A|-------------------------------------|
D|-------------------------------------|

   d
e|---------------------------------------------------------------------------|
B|-3-------------------------------------------------------------------------|
G|-0----------------------------------(let ring)-----------------------------|
D|-0-------------------------------------------------------------------------|
A|-0-------------------------------------------------------------------------|
D|-0-------------------------------------------------------------------------|

[4:13]
e|---------------------------------------------------------------------------|
B|-15-----15---10-----10---8-----8---10-----10---15-----15---10-----10---8---|
G|---------------------------------------------------------------------------|
D|---------------------------------------------------------------------------|
A|---------------------------------------------------------------------------|
D|-12--12------7--7--------5--5------7--7--------12--12------7--7--------5---|

e|---------------------------------------------------------------------------|
B|----8---10-----10---8-----8---8-----8---8-----8---8-----8---3-----3---3----|
G|---------------------------------------------------------------------------|
D|---------------------------------------------------------------------------|
A|---------------------------------------------------------------------------|
D|-5------7--7--------5--5------5--5------5--5------5--5------0--0------0--0-|

e|-----------------------|
B|-3---3-----3---3-----3-|
G|-----------------------|    2x
D|-----------------------|
A|-----------------------|
D|-----0--0------0--0----|

Lyrics:
Spare me your judgements and spare me your dreams
Cause recently mine have been tearing my seams
I sit alone in this winter clarity which clouds my mind
Alone in the wind and the rain you left me
It's getting dark darling, too dark to see
And I'm on my knees, and your faith in shreds, it seems

Corrupted by the simple sniff of riches blown
I know you have felt much more love than you've shown
And I'm on my knees and the water creeps to my chest

But plant your hope with good seeds
Don't cover yourself with thistle and weeds
Rain down, rain down on me
Look over your hills and be still
The sky above us shoots to kill
Rain down, rain down on me

But I will hold on
I will hold on hope

I begged you to hear me, there's more than flesh and bones
Let the dead bury the dead, they will come out in droves
But take the spade from my hands and fill in the holes you've made

But plant your hope with good seeds
Don't cover yourself with thistle and weeds
Rain down, rain down on me

-----------------------------------------------------------------------------

10.Awake My Soul
   Tuning: DADF#AD
Tabbed By: Macheeoo (Chords from Unregistered) 

    D   G   A   Bm  F#  Em
e|--0---5---7---0---X---X---|
B|--0---5---7---0---X---X---|
G|--0---5---7---8---X---X---|
D|--0---5---7---9---4---2---|
A|--0---5---7---9---4---2---|
E|--0---5---7---9---4---2---|

Intro:  D

Verse 1: first time through just D
D			     G	     D
How fickle my heart and how woozy my eyes
D		        G 	     D
I struggle to find any truth in your lies 
D                            G	           D
And now my heart stumbles on things I don't know
D	                  G 	  D
My weakness I feel I must finally show

Lend me your hand and we'll conquer them all
But lend me your heart and I'll just let you fall
Lend me your eyes I can change what you see
But your soul you must keep, totally free


D    G            D	   G         D
     Har har, har har, har har, har har
G         D    G        D
Awake my soul, awake my soul

           G            D	         A            D
In these bodies we will live, in these bodies we will die
        G                D     A	      D
The way you invest your love, you invest your life (repeat)

G
D-G-A
A-G-D

G	  D    G        D    G        Bm    
Awake my soul, awake my soul awake my soul
G    F#   Em   D  G     F#  Em   D
You were made to meet your maker
G	  D    G        D    G        Bm        
Awake my soul, awake my soul awake my soul
G    F#   Em   D  G    F#  Em    D
You were made to meet your maker
G    F#   Em   D  G    F#  Em    D
You were made to meet your maker

-----------------------------------------------------------------------------

11.Dustbowl Dance
   Tuning: EADGBE  CAPO 1
Tabbed By: Verbal Kint

(***Note: There is no acoustic guitar in this song. Marcus is on a drum set 
and Winston, the banjo player, starts off on his banjo and then too electric 
guitar. There are the chords for piano which can be played on guitar!)


   Bm        G             A           D
The young man stands on the edge of his porch
    Em        Bm            Em         F#
The days were short and the father was gone
          Bm            G        A             D
There was no one in the town and no one in the field
     Em           Bm             Em           F#
This dusty barren land had given all it could yield

          Bm            G           A         D
I've been kicked off my land at the age of sixteen
    Em          Bm               Em               F#
And I have no idea where else my heart could have been
  Bm            G            A            D
I placed all my trust at the foot of this hill
     Em      Bm               Em       F#
And now I am sure my heart can never be still
   Bm           G              A         D
So collect your courage and collect your horse
     Em            Bm             Em        F#
And pray you never feel this same kind of remorse

Bm      G         A        D
Seal my heart and brake my pride
     Em         Bm            Em         F#
I've nowhere to stand and now nowhere to hide
 Bm      G         A        D
Align my heart, my body, my mind
   Em             Bm       Em    F#
To face what I've done and do my time

      Bm        G            A          D
Well you are my accuser, now look in my face
Em             Bm            Em        F#
Your opression reeks of your greed and disgrace
   Bm      G         A         D
So one man has and another has not
Em          Bm           Em          F#
How can you love what it is you have got
         Bm          G             A            D
When you took it all from the weak hands of the poor?
Em        Bm                   Em         F#
Liars and thieves you know not what is in store

      Bm          G           A            D
There will come a time I will look in your eye
    Em               Bm           Em         F#
You will pray to the God that you always denied
    Bm          G             A      D
The I'll go out back and I'll get my gun
               Em      Bm               Em   F#
I'll say, "You haven't met me, I am the only son"

Bm      G         A        D
Seal my heart and brake my pride
     Em         Bm            Em         F#
I've nowhere to stand and now nowhere to hide
 Bm      G         A        D
Align my heart, my body, my mind
   Em             Bm       Em    F#
To face what I've done and do my time

(2x)

     Bm       G        A          D
Well yes sir, yes sir, yes it was me
  Em             Bm            Em             F#
I know what I've done, cause I know what I've seen
Bm         G          A      D
I went out back and I got my gun
             Em      Bm               Em   F#
I said, "You haven't met me, I am the only son"

-----------------------------------------------------------------------------

12.After The Storm
   Tuning: EADGBE
Tabbed By: franksta and 

(***Note: You pretty much need to listen to the song to follow this tab. The 
picking/plucking pattern is easily picked up by practice and listening.)

Intro and Verse:
   
e|------------     -----------------------------------------|
B|------------     -----------------------------------------|
G|-4--5--2--4-     -7--5--9--12--11--12--11--14--16--12--11-| 
D|------------ x2  -----------------------------------------|
A|------------     -----------------------------------------|
E|-3--5--2--3-     -7--5--8--12--10--12--10--14--15--12--10-|


G  Gsus4 C/B  D/F# G
And after the storm,
G     Gsus4    C/B     D/F#    G
I run and run as the rains come

Verse Riff or Riff Chords

C/B		  C	G	    D
And I look up, I look up,
Em		D	  D/F#	  G
on my knees and out of luck,
Em		D
I look up.

Night has always pushed up day
You must know life to see decay
But I won't rot, I won't rot
Not this mind and not this heart,
I won't rot.

Pre Chorus:
   G
e|-----------------
B|-----------------
G|-4--5--4--2--0---
D|-------------2---
A|-------------2--- 
E|-3--5--3--2--0---

G  	D/F#  		 Em
And I took you by the hand
C	G
And we stood tall,
And remembered our own land,
What we lived for.

Chorus:
 C  		      Em   	      G
And there will come a time, you'll see, with no more tears.
And love will not break your heart, but dismiss your fears.
Get over your hill and see what you find there,
With grace in your heart and flowers in your hair.


And now I cling to what I knew
I saw exactly what was true
But oh no more.
That's why I hold,
That's why I hold with all I have.
That's why I hold.

I will die alone and be left there.
Well I guess I'll just go home,
Oh God knows where.
Because death is just so full and mine so small.
Well I'm scared of what's behind and what's before.

And there will come a time, you'll see, with no more tears.
And love will not break your heart, but dismiss your fears.
Get over your hill and see what you find there,
With grace in your heart and flowers in your hair.

And there will come a time, you'll see, with no more tears.
And love will not break your heart, but dismiss your fears.
Get over your hill and see what you find there,
With grace in your heart and flowers in your hair.

-----------------------------------------------------------------------------

THE END!

As of Feb 2011, they have begun work on a new album in Tennessee, US. Please
show all the support you can because this band truly pours their heart, soul,
blood, sweat, and tears in to writing and preforming their music for the 
simple fact that they love doing it. It breaks my heart to know that there are
people in the world that distort and exploit the creativity and passion
artists like this present. (Any bimbo with auto-tune can make an R&B hit, ha)
 

So please, play their music, share it with others, and give life to this new 
and exciting band of incredibly talented/humble men...

-Matt
comments
print report bad tab
2 comments total.
0 reply
mrmono wrote on April 3 2011, 02:49 pm

thanks..fantastic work ;) God bless ya...greets form Latvia

+2 reply
Fellway wrote on July 9 2011, 03:00 am

For little lion man, the alternate tuning marcus uses is CACGCE, with a capo on 5. The chords he uses:
Am [0 0 0 2 0 0]
C [0 3 0 0 0 0]
F [5 8 0 0 0 0] Fmaj7 [5 7 0 0 0 0]
G [7 10 0 0 0 0]

In the intro, he just does these with the C and Am chords:

e--0---------
c--0---------
g--0-2-0-----
c--0----2-0--
a--3---------
c------------

e--0-------
c--0-------
g--2--0h2--
c--0-------
a--0-------
c----------

During the "ahh" part, Marcus does this ascending riff behind the singing:
(the open strings to not have to be played, but they may be)
If you do not want to do this part, the chords sound just fine

e--0--0--0--
c--0--0--0--
g--0--0--0--
c--2--4--5--
a--3--3--3--
c--0--0--0--

I want to post or [tab]
guest
You may want to rate the tab now too:
select rating
Please do not post tabs as comments. Select "correction" instead!