Oops, an error
Loading. Please wait.

White Blank Page Tab

ver2
ver2

Whole song

Video

More versions @911Tabs.com
38,813 views 12 this week
7 commentsread comments
1 2 3 4 5
worth learning
x 7
Autoscroll
+/-
esc
set tempo
stop
Contributor
Difficulty
intermediate
Hey! There's an official Ultimate Guitar app which is ideal
for learning songs when you're away from computer. Get the app
WARNING: You are trying to view
                                    content from Ultimate-Guitar.com
                                    in an unauthorized application,
                                    which is prohibited.

                                    Please use an official Ultimate
                                    Guitar Tabs application for iPhone,
                                    iPad or Android to access legitimate
                                    chords, guitar, bass, and drum tabs
                                    from Ultimate-Guitar.com database.

                                    Type "ultimate guitar tabs" in Apple
                                    App Store's or Android Market's
                                    search to find the application.
Artist: Mumford And Sons
Song: White Blank Page
Album: Sigh No More (2009)

Standard Tuning
Capo on 4th

***NOTE: Yes Marcus can be seen most of the time playing with capo on 2nd. I have this 
as capo 4th. This vid shows Marcus playing it capo 4th live with Mumford & Sons:

http://www.youtube.com/watch?v=2aLtULKU5_M&feature=BF&list=QL&index=1

I know that there are other tabs that sound fine, and are exactly like this one except
where the capo is placed. You can place it on the 2nd or 4th. This is a great song
by a great band, and Marcus Mumford is a genius. Enjoy!

Em: 022000
D:  054035
E': 075007
C:  032013
G:  320003

h - hammer on


 Em
|---0-0-0-0---0-0-0-0-|
|---0-0-0-0---0-0-0-0-|
|---0-0-0-0---0-0-0-0-|    x4
|---------------------|
|------------2--------|
|-0-------------------|

    C                    G                 C                    G
|---0-0-0-0-----0-0-0-0-|---3-3-3-3--3-3-3-3-|---3-3-3-3-----3-3-3-3-|---3-3-3-3---0-0-0-0--|
|---1-1-1-1-----1-1-1-1-|---0-0-0-0--0-0-0-0-|---1-1-1-1-----1-1-1-1-|---0-0-0-0---0-0-0-0--|
|---0-0-0-0-----0-0-0-0-|---0-0-0-0--0-0-0-0-|---0-0-0-0-----0-0-0-0-|---0-0-0-0---0-0-0-0--|
|-----------0h2---------|-----------0--------|-------------0h2-------|----------------------|
|-3---------------------|--------------------|-3---------------------|----------------------|
|-----------------------|-3------------------|-----------------------|-3----------2-------0-|


Play this 4 times, one for intro and one for each line in the first verse:

Intro

Can you lie next to her, and give her your heart, your heart, as well as your body 
And can you lie next to her, and confess your love, your love, as well as your folly 
And can you kneel before the king, and say I'm clean, I'm clean

    D       E'         C      D      D         E'       C        D
But tell me now, where was my fault, in loving you with my whole heart?


 D                  E'                 C                  D
|---5-5-5-5---5-5-5-5-|---7-7-7-7---7-7-7-7-|---3-3-3-3---3-3-3-3-|---5-5-5----5-5-5-5-|
|---3-3-3-3---3-3-3-3-|---0-0-0-0---0-0-0-0-|---1-1-1-1---1-1-1-1-|---3-3-3----3-3-3-3-|
|---0-0-0-0---0-0-0-0-|---0-0-0-0---0-0-0-0-|---0-0-0-0---0-0-0-0-|---0-0-0----0-0-0-0-|
|---------------------|---------------------|---------------------|--------------------|
|-5---------5---------|-7---------7---------|-3---------3---------|-5---------5--------|
|---------------------|---------------------|---------------------|--------------------|

Oh tell me now, where was my fault, in loving you with my whole heart?

Em         C     G

Em                                 C  G  C  G
A white blank page, and a swelling rage, rage
Em                                         C   G         C   G
You did not think, when you sent me to the brink, to the brink
Em                                        C  G           C  G
You desired my attention, but denied my affections, my affections


    D       E'        C      D         D      E'       C        D
But tell me now where was my fault, in loving you with my whole heart?
(one strum each)


Em      C     G    (x2)
    


D       E'     C     D       x4
aah-a-a-aah-aa-aah-a-aah



D       E'     C          D       D      E'       C        D
Lead me to the truth, and I, will follow you with my whole life


D      E'      C       D  x2
        


D
ah-a-a-ah-aa-ah-a-ah   x4

END
comments
print report bad tab
7 comments total. Showing first comments.
-1 reply
young1 wrote on October 16 2010, 08:39 am

Really good tab mate, great to play. Its definately played capo on second with standard tuning on the album. And when playing the G chord its open Dstring (E) instead of 2nd fret Astring (C#).

0 reply
Macflash wrote on October 26 2010, 10:26 pm

When they play it live in the bookshop sessions he puts the capo on the 2nd fret. still a good tab.

0 reply
NINtrentreznor wrote on November 17 2010, 03:40 pm

ah yeah. i just play sometimes with it on 4 for a higher voice range. my bad!

I want to post or [tab]
guest
You may want to rate the tab now too:
select rating
Please do not post tabs as comments. Select "correction" instead!