Oops, an error
Loading. Please wait.

Catch Me If You Can Tab

37 views 1 this week
no commentswrite comment
1 2 3 4 5
please rate
Autoscroll
+/-
esc
set tempo
stop
Contributor
Difficulty
intermediate
WARNING: You are trying to view
                                    content from Ultimate-Guitar.com
                                    in an unauthorized application,
                                    which is prohibited.

                                    Please use an official Ultimate
                                    Guitar Tabs application for iPhone,
                                    iPad or Android to access legitimate
                                    chords, guitar, bass, and drum tabs
                                    from Ultimate-Guitar.com database.

                                    Type "ultimate guitar tabs" in Apple
                                    App Store's or Android Market's
                                    search to find the application.
Catch me if you can - Mumsdollar
Tabbed by: Josh Taylor
Guitar 1: Leaad guitar, standard tuning
Guitar 2: Rhythum guitar, drop D tuning

intro
Guitar 1                                      X2
e|------------------------------------4-----------------------------------------------|
B|------7---6---4------7---6---4----------4-6-----------------------------------------|
G|--6-6---6---6----6-6---6---6----6-6---6---------------------------------------------|
D|------------------------------------------------------------------------------------|
A|------------------------------------------------------------------------------------|
E|------------------------------------------------------------------------------------|

e|------------------------------------------------------------------------------------|
B|------------------------------------------------------------------------------------|
G|--10--10--5-5--6-6--6-6--6--10--8-8--8-8--8-8--8-8--8--8----------------------------|
D|------------------------------------------------------------------------------------|
A|--8----8--3-3--4-4--4-4--4--8---6-6--6-6--6-6--6-6--6--6----------------------------|
E|------------------------------------------------------------------------------------|

e|------------------------------------------------------------------------------------|
B|------------------------------------------------------------------------------------|
G|--6-6--5-5--3-3--10-10-10--10--8-8--8-8--8-8--8-8--8--8-----------------------------|
D|------------------------------------------------------------------------------------|
A|--4-4--3-3--1-1--8--8--8---8---6-6--6-6--6-6--6-6--6--6-----------------------------|
E|------------------------------------------------------------------------------------|

Guitar 2
e|------------------------------------------------------------------------------------|
B|------------------------------------------------------------------------------------|
G|------------------------------------------------------------------------------------|
D|--8-8--3-3--4-4--4-4--4--4--6-6--6-6--6-6--6-6--6--6--------------------------------|
A|--8-8--4-4--4-4--4-4--4--4--6-6--6-6--6-6--6-6--6--6--------------------------------|
D|--8-8--3-3--4-4--4-4--4--4--6-6--6-6--6-6--6-6--6--6--------------------------------|

e|------------------------------------------------------------------------------------|
B|------------------------------------------------------------------------------------|
G|-----------------3-3-3--6-----------------------------------------------------------|
D|--4-4--3-3--1-1--3-3-3--6--6-6--6-6--6-6--6-6--6--6---------------------------------|
A|--4-4--4-4--1-1--1-1-1--4--6-6--6-6--6-6--6-6--6--6---------------------------------|
D|--4-4--3-3--1-1------------6-6--6-6--6-6--6-6--6--6---------------------------------|


verse 1
Guitar 1                           x3
e|------------------------------------|-----------------------------------------------|
B|------------------------------------|-----------------------------------------------|
G|--8-8-8--6-6-6--5-5-5--6-6-6--5-5---|--6-6--6-6--8/10-------------------------------|
D|----------------------------------6-|-----------------------------------------------|
A|------------------------------------|--4-4--4-4--6/8--------------------------------|
E|------------------------------------|-----------------------------------------------|
                           x3
e|---------------------------|--------------------------------------------------------|
B|--9-9-9/7-7-7-7/6--6/2-2-4-|--9-9-9/7--7-7-7/6--6-6-6/4-4---------------------------|
G|---------------------------|--------------------------------------------------------|
D|---------------------------|--------------------------------------------------------|
A|---------------------------|--------------------------------------------------------|
E|---------------------------|--------------------------------------------------------|

Guitar 2
e|------------------------------------------------------------------------------------|
B|------------------------------------------------------------------------------------|
G|--------------------5-5--5-5--5-6---------------------------------------------------|
D|--------------------6-6--6-6--6-6---------------------------------------------------|
A|--------------------3-3--3-3--3/4---4---4-4---4---4-4---4---4-4---3-----------------|
D|--8-----3-----4---------------------8---8-8---3---3-3---4---4-4---6-----------------|
  (x16) (x16) (x16)                 (x12)     (x12)     (x12)     (x16)





Chorus 1
Guitar 1
e|------------------------------------------------------------------------------------|
B|------------------------------------------------------------------------------------|
G|--13-----10---8----13---13---10---5-5--5-5--5---------------------------------------|
D|------------------------------------------------------------------------------------|
A|--11-----8----6----11---11---8----3-3--3-3--3---------------------------------------|
E|------------------------------------------------------------------------------------|
(hold 4B)(x16)(x16)(x16)(x16)(x16)

e|------------------------------------------------------------------------------------|
B|------------------------------------------------------------------------------------|
G|-10-10-5-5--6-6--6-6--6-6--8-8--8-8--8-8--8-8---------------------------------------|
D|------------------------------------------------------------------------------------|
A|--8-8--3-3--4-4--4-4--4-8--6-6--6-6--6-6--6-6---------------------------------------|
E|------------------------------------------------------------------------------------|

Guitar 2
e|------------------------------------------------------------------------------------|
B|------------------------------------------------------------------------------------|
G|------------------------------------------------------------------------------------|
D|--11----8----6----11---4----8----6-6--6-6--6----------------------------------------|
A|--11----8----6----11---4----8----6-6--6-6--6----------------------------------------|
D|--11----8----6----11---4----8----6-6--6-6--6----------------------------------------|
   hold (x16)(x16)(x16)(x16)(x16)

e|------------------------------------------------------------------------------------|
B|------------------------------------------------------------------------------------|
G|------------------------------------------------------------------------------------|
D|--8-8--3-3--4-4--4-4--4-4--4-4--4--4--6-6--6-6--6-6--6-6----------------------------|
A|--8-8--3-3--4-4--4-4--4-4--4-4--4--4--6-6--6-6--6-6--6-6----------------------------|
D|--8-8--3-3--4-4--4-4--4-4--4-4--4--4--6-6--6-6--6-6--6-6----------------------------|


verse2
Guitar 1                                       x3
e|---------------------|--------------------------|-----------------------------------|
B|---------------------|-9-9-9/7-7-7-7/6--6/2-2-4-|--9-9-9/7--7-7-7/6--6-6-6/4-4------|
G|--6---6-6--6-6--8/10-|--------------------------|-----------------------------------|
D|---------------------|--------------------------|-----------------------------------|
A|--4---4-4--4-4--6/8--|--------------------------|-----------------------------------|
E|---------------------|--------------------------|-----------------------------------|
  hold

Guitar 2
e|------------------------------------------------------------------------------------|
B|------------------------------------------------------------------------------------|
G|-----------------5-5--5-5--5-6------------------------------------------------------|
D|-----------------6-6--6-6--6-6------------------------------------------------------|
A|-----------------3-3--3-3--3/4------4---4-4---4---4-4---4---4-4---3-----------------|
D|--8---11---4------------------------8---8-8---3---3-3---4---4-4---6-----------------|
  (2B) (2B) (2B)                    (x12)     (x12)     (x12)     (x16)



Chorus 2
Guitar 1
e|------------------------------------------------------------------------------------|
B|------------------------------------------------------------------------------------|
G|--13--13---10----8----13---13---10---5-5--5-5--5------------------------------------|
D|------------------------------------------------------------------------------------|
A|--11--11----8----6----11---11---8----3-3--3-3--3------------------------------------|
E|------------------------------------------------------------------------------------|
  (x16)(x16)(x16)(x16)(x16)(x16)(x16)

Guitar 2
e|------------------------------------------------------------------------------------|
B|------------------------------------------------------------------------------------|
G|------------------------------------------------------------------------------------|
D|--11---4---8----6----11----4----8----6-6--6-6--6------------------------------------|
A|--11---4---8----6----11----4----8----6-6--6-6--6------------------------------------|
D|--11---4---8----6----11----4----8----6-6--6-6--6------------------------------------|
  (x16)(x16)(x16)(x16)(x16)(x16)(x16)


Bridge
Guitar 1
e|------------------------------------------------------------------------------------|
B|------------------------------------------------------------------------------------|
G|--6-------6p5-6p5--8p5-8p5----10p6-10p6--8p6-8p6--10p6-10p6--11p6--11p6---13---13---|
D|---6----------------------------------------------------------------------11---11---|
A|------------------------------------------------------------------------------------|
E|------------------------------------------------------------------------------------|
  1    (2) 3                   4                                          (x16) hold

Guitar 2    x4
e|------------------------------------------------------------------------------------|
B|------------------------------------------------------------------------------------|
G|--3--5--6-------6-------------------------------------------------------------------|
D|--1--3--4-------4---------------------------------------11--------------------------|
A|--1--3--4-------4---------------------------------------11--------------------------|
D|--1--3--4-------4---------------------------------------11--------------------------|
   1B 1B 1B    (last time through strum 16 times)        hold

Chorus
Guitar 1
e|------------------------------------------------------------------------------------|
B|------------------------------------------------------------------------------------|
G|---10---8----13-13--13-13-13--13--13-13--13-13-13--13--10----5-5--5-5--5------------|
D|------------------------------------------------------------------------------------|
A|---8----6----11-11--11-11-11--11--11-11--11-11-11--11---8----3-3--3-3--3------------|
E|------------------------------------------------------------------------------------|
   (x16)(x16)                                           (x16)

Guitar 2
e|------------------------------------------------------------------------------------|
B|------------------------------------------------------------------------------------|
G|------------------------------------------------------------------------------------|
D|---8---6----11-11--11-11-11--11--4-4--4-4-4--4---8---6-6--6-6--6--------------------|
A|---8---6----11-11--11-11-11--11--4-4--4-4-4--4---8---6-6--6-6--6--------------------|
D|---8---6----11-11--11-11-11--11--4-4--4-4-4--4---8---6-6--6-6--6--------------------|
    (x16)(x16)                                     (x16)


Outro
Guitar 1
e|---------------------------------------------------------------------------------------|
B|---------------------------------------------------------------------------------------|
G|--10--10--5-5--6-6--6-6--6--10--8----6-6--5-5--3-3--10-10-10--13--8--------------------|
D|---------------------------------------------------------------------------------------|
A|--8----8--3-3--4-4--4-4--4--8---6----4-4--3-3--1-1--8--8--8---11---6-------------------|
E|---------------------------------------------------------------------------------------|
                                (4B)                              (ring out)
Guitar 2
e|------------------------------------------------------------------------------------|
B|------------------------------------------------------------------------------------|
G|-----------------------------------------------3-3-3--6-----------------------------|
D|--8-8--3-3--4-4--4-4--4--4--6---4-4--3-3--1-1--3-3-3--6--6--------------------------|
A|--8-8--4-4--4-4--4-4--4--4--6---4-4--4-4--1-1--1-1-1--4--6--------------------------|
D|--8-8--3-3--4-4--4-4--4--4--6---4-4--3-3--1-1------------6--------------------------|
                            (4B)                              (ring out)

Hope its right!
Enjoy

P.S. MUMSDOLLAR RULE!
comments
We did not receive enough feedback on this tab! Please rate:
print report bad tab
1 2 3 4 5
I want to post or [tab]
guest
You may want to rate the tab now too:
select rating
Please do not post tabs as comments. Select "correction" instead!