Oops, an error
Loading. Please wait.

Mind Eraser Tab

7,540 views 3 this week
no commentswrite comment
1 2 3 4 5
excellent!
x 2
Autoscroll
+/-
esc
set tempo
stop
Contributor
Difficulty
intermediate
WARNING: You are trying to view
                                    content from Ultimate-Guitar.com
                                    in an unauthorized application,
                                    which is prohibited.

                                    Please use an official Ultimate
                                    Guitar Tabs application for iPhone,
                                    iPad or Android to access legitimate
                                    chords, guitar, bass, and drum tabs
                                    from Ultimate-Guitar.com database.

                                    Type "ultimate guitar tabs" in Apple
                                    App Store's or Android Market's
                                    search to find the application.
Band:  Municipal Waste
Album: Hazardous Mutation
Song:  Mind Eraser

Copyright (c)  (Earache) (2005)
Version 1.0 - (09/09/06)

Transcribed By: Steve
Email:          stephen.elvidge1@ntlworld.com


.  - palm mute           /  - slide up to
\  - slide down to       ~  - vibrato
h  - hammer on           b  - Bend
p  - pull off            Suffixes for bend
t  - tap                 f  - full bend    h - half bend
ph - pinched harmonic    q  - quarter bend t - tap bend
*  - see comment         ^  - Hold bend    r release bend
x  - Stuccatto           ~  - vibrato bend
,  - slight palm mute    () - ghost note, sustained note
"  - tremolo note        <> - harmonic
pb - pre bend

Tuning E A D G B E

  [-PM-] [-PM] [-----PM-----]
|-----------------------------|
|-----------------------------|
|-----------------------------|
|-----------------------------|
|-2-----8-----2-8\7\5-7\5-3/5-|
|-0-0-0-6-0-0-0-6\5\3-5\3-1/3-|


 Guitar 1
 [-PM-] [-PM] [---PM---]    [-PM-] [-PM] [-----PM-----]
[--------------------------------------------------------|
[--------------------------------------------------------|
[--------------------------------------------------------|
[--------------------------------------------------------|
[-2-----8-----2-8\7\5-7-\3--2-----8-----2-8\7\5-7\5-3/5--|
[-0-0-0-6-0-0-0-6\5\3-5-\1--0-0-0-6-0-0-0-6\5\3-5\3-1/3--|
[Guitar 2
[--------------------------------------------------------|
[--------------------------------------------------------|
[--------------------------------------------------------|
[--------------------------------------------------------|
[---------------8\7\5-7-\3--2--------------(2)-----------|
[---------------6\5\3-5-\1--0--------------(0)-----------|

 Guitar 1
 [-PM-] [-PM] [---PM---]    
[---------------------------|
[---------------------------|
[---------------------------|
[---------------------------|
[-2-----8-----2-8\7\5-7-\3--|
[-0-0-0-6-0-0-0-6\5\3-5-\1--|
[Guitar 2
[---------------------------|
[---------------------------|
[---------------------------|
[---------------------------|
[-----(2)-------8\7\5-7-\3--|
[-----(0)-------6\5\3-5-\1--|


  [-PM-] [-PM] [-----PM-----] [-PM-] [-PM] [--PM--]
|-------------------------------------------------------|
|-------------------------------------------------------|
|-------------------------------------------------------|
|-------------------------------------------------------|
|-2-----8-----2-8\7\5-7\5-3/5-2-----8-----2-8\7\5-7-\3--|
|-0-0-0-6-0-0-0-6\5\3-5\3-1/3-0-0-0-6-0-0-0-6\5\3-5-\1--|

 Guitar 1
  [-PM-] [-PM] [-----PM-----] [-PM-] [-PM] [--PM--]
[-------------------------------------------------------|
[-------------------------------------------------------|
[-------------------------------------------------------|
[-------------------------------------------------------|
[-2-----8-----2-8\7\5-7\5-3/5-2-----8-----2-8\7\5-7-\3--|
[-0-0-0-6-0-0-0-6\5\3-5\3-1/3-0-0-0-6-0-0-0-6\5\3-5-\1--|
[Guitar 2
[-------------------------------------------------------|
[-------------------------------------------------------|
[-------------------------------------------------------|
[---------------8\7\5-7\5-4/5---------------------------|
[-------------------------------------------------------|
[-------------------------------------------------------|


  [-PM-] [-PM]                [-PM-] [-PM] [---PM---]ph
|--------------------------------------------------------|
|--------------------------------------------------------|
|--------------------------------------------------------|
|-2-----8-----2---------------2-----8-----2--------------|
|-0-0-0-6-0-0-0-6-5-3-5-3-1-3-0-0-0-6-0-0-0-6-5-6-8-6-5--|
|--------------------------------------------------------|


  [-PM-] [-PM] [-----PM-----] [-PM-] [-PM] [--PM--]
|-------------------------------------------------------|
|-------------------------------------------------------|
|-------------------------------------------------------|
|-------------------------------------------------------|
|-2-----8-----2-8\7\5-7\5-3/5-2-----8-----2-8\7\5-7-\3--|
|-0-0-0-6-0-0-0-6\5\3-5\3-1/3-0-0-0-6-0-0-0-6\5\3-5-\1--|

 Guitar 1
 [-PM-] [-PM-] [-PM-]     [-PM-] [-PM-] [-PM-]
[------------------------------------------------------|
[------------------------------------------------------|
[------------------------------------------------------|
[------4------5--------4/5------4------5---------------|
[------2------3------5-2/3------2------3------5p0-2p0--|
[-0000---0000---0000-------0000---0000---0000----------|
[Guitar 2
[                                             ph
[------------------------------------------------------|
[------------------------------------------------------|
[------------------------------------------------------|
[----------------------4/5-----------------------------|
[-2------------------5-2/3--------------------5p0-2p0--|
[-0----------------------------------------------------|

  [-PM-]  [-PM-]  [-PM-]
|--------------------------------|
|--------------------------------|
|--------------------------------|
|--------------------------------|
|-------5-------6-------5p3\2-3--|
|-3-333---3-333---3-333----------|

 Verse

 [-PM-] [-PM-] [-PM-]     
|-----------------------------|
|-----------------------------|
|-----------------------------|
|------4------5---------------|
|------2------3------5p0-2p0--|
|-0000---0000---0000----------|

 [-PM-] [-PM-] [-PM-]     [-PM-] [-PM-] [-PM-]
|--------------------------------------------------------|
|--------------------------------------------------------|
|--------------------------------------------------------|
|------4------5-------------------4------5---------------|
|------2------3------5p0-2-3------2------3------5p0-2p0--|
|-0000---0000---0000---------0000---0000---0000----------|

  [-PM-]  [-PM-]  [-PM-]
|--------------------------------|
|--------------------------------|
|--------------------------------|
|--------------------------------|
|-------5-------6-------5p3\2-3--|
|-3-333---3-333---3-333----------|

 [-PM-] [-PM-] [-PM-]     
|-----------------------------|
|-----------------------------|
|-----------------------------|
|------4------5---------------|
|------2------3------5p0-2p0--|
|-0000---0000---0000----------|



|-------------------------------------------------------------------|
|-------------------------------------------------------------------|
|-------------------------------------------------------------------|
|---------4--(4)--5--(5)--7---4/5-4----4--------4-------(4)---------|
|-2--(2)--2--(2)--3--(3)--5---2/3-2--2-2----5p0-2-------(2)---------|
|-0--(0)------------------------------------------------------------|

 Guitar 1
 [---PM--]       [---PM--]      [--PM--]
[--------------------------------------------------------|
[--------------------------------------------------------|
[--------------------------------------------------------|
[--------------------------------------------------------|
[----------7-8-7----------8-10-8--------5-5-5-5-8-8-8-8--|
[-00000000-------00000000--------000000------------------|
[Guitar 2
[--------------------------------------------------------|
[--------------------------------------------------------|
[--------------------------------------------------------|
[---------------------------------------7-7-7-7-10101010-|
[-2-------------------------------------5-5-5-5-8-8-8-8--|
[-0------------------------------------------------------|

   [---PM--]     [---PM--]      [--------PM--------]
|-----------------------------------------------------|
|-----------------------------------------------------|
|-----------------------------------------------------|
|-9---------------------------------------------------|
|-7---------7-8-7---------8-10-8--------5-3---3-5-3-2-|
|---0000000-------0000000--------000000-3-1-0-1-3-1-0-|


   [---PM--]     [---PM--]      [--PM--]
|------------------------------------------------------|
|------------------------------------------------------|
|------------------------------------------------------|
|-9-------------------------------------7-7--7-1010-10-|
|-7---------7-8-7---------8-10-8--------5-5--5-8-8--8--|
|---0000000-------0000000--------000000----------------|

   [---PM--]     [---PM--]      [--------PM--------]
|-----------------------------------------------------|
|-----------------------------------------------------|
|-----------------------------------------------------|
|-9---------------------------------------------------|
|-7---------7-8-7---------8-10-8--------5-3---3-5-3-2-|
|---0000000-------0000000--------000000-3-1-0-1-3-1-0-|


|------------------------------------------------------------|
|------------------------------------------------------------|
|------------------------------------------------------------|
|-9----(9)-----10\9----(9)----12\10---(10)---7-7--7-1010-10--|
|-7----(7)-----8-\7----(7)----10\8----(8)----5-5--5-8-8--8---|
|------------------------------------------------------------|

 Rpt Main Riff 4 X
 Rpt Main Riff in A
 Rpt Main Riff

 Guitar solo
                ~~~~~~~~~~~~ ~~~~~~~~~~
|---------------------------------------17p15p14-17p15p14-17p15p14-|
|------------------------------------------------------------------|
|-<9>-trem dive-------------<7>------------------------------------|
|------------------------------------------------------------------|
|------------------------------------------------------------------|
|------------------------------------------------------------------|


|-17p15p14-15p14p12-15p14p12-15p14p12-15p14p12-------19-17-|
|----------------------------------------------17-19-------|
|----------------------------------------------------------|
|----------------------------------------------------------|
|----------------------------------------------------------|
|----------------------------------------------------------|
     h     h         h                       ph~~~
|---------------------------------------------------|
|-17-18p17-189p17\15-17p15\13-15--------------------|
|--------------------------------12-14p12\11\9------|
|---------------------------------------------------|
|---------------------------------------------------|
|---------------------------------------------------|

 Backing for solo

   [-PM-] [-PM-]  -PM-] [-PM-]                      PM   
|----------------------------------------------------------------|
|----------------------------------------------------------------|
|----------------------------------------------------------------|
|-----------------------------9-----7-9-----7-9/10\9---7/9\7-7\5-|
|-2------2------2------2------7-7-7\5-7-7-7\5-7/8-\7---5/7\5-5\3-|
|-0-0000-0-0000-0-0000-0-0000------------------------0-----------|

 [---PM--]
|------------|
|------------|
|------------|
|------------|
|---------2--|
|-3-5-3-2-0--|

 Rpt above

   [----PM---]phphph[---------PM-----------]  
|-------------------------------------------------------------|
|-------------------------------------------------------------|
|-9-----------------------------------------------------------|
|-9-----------------------------------------7/9-10/12\10\7/9--|
|-7-----------7-8-7-----------3/5\3---------5/7-8-/10\8-\5/7--|
|---0-0-0-0-0-------0-0-0-0-0-1/3\1-1-1-1-1-------------------|

   [----PM---]phphph[--------------PM--------------]
|-------------------------------------------------------------|
|-------------------------------------------------------------|
|-9-----------------------------------------------------------|
|-9-----------------------------------------7/9-10/12\10\7/9--|
|-7-----------7-8-7-----------3/5\3---------5/7-8-/10\8-\5/7--|
|---0-0-0-0-0-------0-0-0-0-0-1/3\1-1-1-1-1-5/7-8-/10\8-\5/7--|

   [----PM---]phphph[----PM--]  h   [------------PM----------] 
|-------------------------------------------------------------|
|-------------------------------------------------------------|
|-9-----------------------------------------------------------|
|-9-----------------------------------------------------------|
|-7-----------7-8-7-----------7-8-10p8-8-8-8-8-5-7-8-10-8-5-7-|
|---0-0-0-0-0-------0-0-0-0-0---------------------------------|

 ph[----PM---]phphph[---PM---]      [-----------PM----------]
|---------------------------------------------------------------|
|---------------------------------------------------------------|
|------------------------------------------------------------9--|
|---------------------------------------------7/9-10/12\10\7/9--|
|-7-----------7-8-7-----------2-3/5\3---------5/7-8-/10\8-\5/7--|
|---0-0-0-0-0-------0-0-0-0-0-0-1/3\1-1-1-1-1-5/7-8-/10\8-\5----|


   ~~~         PM   PM
|-------------------------------|
|-------------------------------|
|--(9)--------------------------|
|--(9)-----7\5---5\4------------|
|--(7)-----5\3-0-3\2-0-4/5\4-2--|
|----------------------2/3\2-0--|




END

comments
We did not receive enough feedback on this tab! Please rate:
print report bad tab
1 2 3 4 5
I want to post or [tab]
guest
You may want to rate the tab now too:
select rating
Please do not post tabs as comments. Select "correction" instead!