Oops, an error
Loading. Please wait.

Mourning Sex Tab

ver1
ver1

Whole song

Interactive

More versions @911Tabs.com
583 views 1 this week
no commentswrite comment
1 2 3 4 5
please rate
Autoscroll
+/-
esc
set tempo
stop
Contributor
Tabbers playing skills
advanced
Hey! There's an official Ultimate Guitar app which is ideal
for learning songs when you're away from computer. Get the app
WARNING: You are trying to view
                                    content from Ultimate-Guitar.com
                                    in an unauthorized application,
                                    which is prohibited.

                                    Please use an official Ultimate
                                    Guitar Tabs application for iPhone,
                                    iPad or Android to access legitimate
                                    chords, guitar, bass, and drum tabs
                                    from Ultimate-Guitar.com database.

                                    Type "ultimate guitar tabs" in Apple
                                    App Store's or Android Market's
                                    search to find the application.
Municipal Waste - Mourning Sex
Toxic Waste (Split w/ Toxic Holocaust) (2012)
Tabbed By ruker
Standard Tuning EADGBE

--------------
Key:
--------------
.  Palm Mute
~  Vibrato
h  Hammer-on
p  Pull-off
/  Slide Up
\  Slide Down
--------------

Riff A (0:00)
 Rhythm Left & Right
||------------------------------------------------------------------------------|
||------------------------------------------------------------------------------|
||------------------------------------------------------------------------------|
||-------------------------------------------------------------7----8~----------|
||-3--5--6--5------------8----3----------3--5--6--5-----------------------------|
||-1--3--4--3------------6----1----------1--3--4--3-----------------------------|
   .  .  .                               .  .  .


|------------------------------------------------------------------------------||
|------------------------------------------------------------------------------||
|------------------------------------------------------------------------------||
|-------------------------------------------------------------7----8~-------\--||
|-3--5--6--5------------8----3----------3--5--6--5-----------------------------||
|-1--3--4--3------------6----1----------1--3--4--3-----------------------------||
  .  .  .                               .  .  .

Bridge A (0:11)
||--------------------------------------------------------------------------||
||--------------------------------------------------------------------------||
||--------------------------------------------------------------Pick-Scrape-||
||-----------------------------------------------------------------Down-----||
||-8---8---8---3---3---3---5------------------------------------------------||
||-6---6---6---1---1---1---3------------------------------------------------||


Riff B (0:18)
||--------------------------------------------------------------------------------------------||
||*------------------------------------------------------------------------------------------*||
||--------------------------------------------------------------------------------------------||
||--------------------------------------6----6------------------------------------------------||
||*-3--5----5--3--5----5--8--7----3--5--4----4--3--5----5--3--5----5--8--8----8--3--3----3---*||
||--1--3----3--1--3----3--6--5----1--3----------1--3----3--1--3----3--6--6----6--1--1----1----||


Riff C (0:27)
||--------------------------------------------------------------------------------------------||
||*------------------------------------------------------------------------------------------*||
||--------------------------------------------------------------------------------------------||
||--------------------------------------6----6------------------------------------------------||
||*-3--5----5--3--5----3--8--7----3--5--4----4--3--5----5--3--5----3--8--8----7--3--3----3---*||
||--1--3----3--1--3----1--6--5----1--3----------1--3----3--1--3----1--6--6----5--1--1----1----||
    .       .  .       .          .  .          .       .  .       .

Riff D (0:37)                                                                                 4x
||----------------------------------------------------------------------------------------------||
||*--------------------------------------------------------------------------------------------*||
||----------------------------------------------------------------------------------------------||
||--6--6----6--6--6----6----------------------------------------------7-\6--------8-\7----------||
||*-4--4----4--4--4----4--6--6----6--8--8----8--5----------5----------5-\4--------6-\5---------*||
||------------------------4--4----4--6--6----6--3--3--333--3--3--333--------5--4--------6--5----||
                                                   .  ...  .  .  ...        .  .        .  .

Riff B (0:55)
||--------------------------------------------------------------------------------------------||
||*------------------------------------------------------------------------------------------*||
||--------------------------------------------------------------------------------------------||
||--------------------------------------6----6------------------------------------------------||
||*-3--5----5--3--5----5--8--7----3--5--4----4--3--5----5--3--5----5--8--8----8--3--3----3---*||
||--1--3----3--1--3----3--6--5----1--3----------1--3----3--1--3----3--6--6----6--1--1----1----||


Riff C (1:04)
||--------------------------------------------------------------------------------------------||
||*------------------------------------------------------------------------------------------*||
||--------------------------------------------------------------------------------------------||
||--------------------------------------6----6------------------------------------------------||
||*-3--5----5--3--5----3--8--7----3--5--4----4--3--5----5--3--5----3--8--8----7--3--3----3---*||
||--1--3----3--1--3----1--6--5----1--3----------1--3----3--1--3----1--6--6----5--1--1----1----||
    .       .  .       .          .  .          .       .  .       .

Riff E (1:13)
||---------------------------------------------------------------------------------------|
||*--------------------------------------------------------------------------------------|
||---------------------------------------------------------------------------------------|
||--6--6------6--6------6--6------4--4--2--4--6--6------6--6------6--6------4--4--2--9---|
||*-4--4--44444--4--44444--4--44442--2--0--2--4--4--44444--4--44444--4--44442--2--0--7---|
||---------------------------------------------------------------------------------------|
          ....      ....      ....                  ....      ....      ....


|---------------------------------------------------------------------------------------------||
|--------------------------------------------------------------------------------------------*||
|---------------------------------------------------------------------------------------------||
|-6--6------6--6------6--6------4--4--2--4--6---6---6---4---4---4---9---9---9---8---8---8-----||
|-4--4--44444--4--44444--4--44442--2--0--2--4---4---4---2---2---2---7---7---7---6---6---6----*||
|---------------------------------------------------------------------------------------------||
        ....      ....      ....

Bridge B (1:31)
 Rhythm Left
||--------------------------------------------------------------------------------------||
||--------------------------------------------------------------------------------------||
||--------------------------------------------------------------------------------------||
||-3--3----3--4--3----3--6--4----4--7--6----7--4---3---4---6---4---6---7----------------||
||-1--1----1--2--1----1--4--2----2--5--4----5--2---1---2---4---2---4---5----------------||
||--------------------------------------------------------------------------------------||
|                                                                                        |
|Rhythm Right                                                                            |
||--------------------------------------------------------------------------------------||
||--------------------------------------------------------------------------------------||
||----REST----------REST-------REST-------REST------------------------------------------||
||-3----------4--3-------6--4-------7--6-------4---3---4---6---4---6---7----------------||
||-1----------2--1-------4--2-------5--4-------2---1---2---4---2---4---5----------------||
||--------------------------------------------------------------------------------------||


Riff F (1:36)
 Rhythm Left & Right                                                                        3x
||--------------------------------------------------------------------------------------------||
||*------------------------------------------------------------------------------------------*||
||--------------------------------------------------------------------------------------------||
||--3--3----3--4--3----3--6--4----4--7--6----7--4--3----4--6--4----6--7--7----7--7--7----7----||
||*-1--1----1--2--1----1--4--2----2--5--4----5--2--1----2--4--2----4--5--5----5--5--5----5---*||
||--------------------------------------------------------------------------------------------||


Riff G (1:48)                                                                               3x
||--------------------------------------------------------------------------------------------||
||*------------------------------------------------------------------------------------------*||
||--------------------------------------------------------------------------------------------||
||--------------------------------------------------------------------------------------------||
||*-5--5----5--6--5----5--8--6----6--9--8----9--6--5----6--8--6----8--9--9----9--9--9----9---*||
||--3--3----3--4--3----3--6--4----4--7--6----7--4--3----4--6--4----6--7--7----7--7--7----7----||


Bridge C (2:01)
||----------------------------------------------||
||----------------------------------------------||
||----REST----------REST-------REST-------REST--||
||----------------------------------------------||
||-5----------6--5-------8--6-------9--8--------||
||-3----------4--3-------6--4-------7--6--------||


Riff A (2:03)
||-----------------------------------------------------------------------||
||*---------------------------------------------------------------------*||
||-----------------------------------------------------------------------||
||-----------------------------------------------------7----8~-----------||
||*-5------------8----3----------3--5--6--5-----------------------------*||
||--3------------6----1----------1--3--4--3------------------------------||
  

Guitar Lead (2:14)
 Lead Left
||------------------------------------------------------------------|
||------------------------------------------------------------------|
||------------------------------------------------------------------|
||-5----5-7---7h8p7---7-8---8h10p8----8/10-12-10h12p10-8-7-7h8-7-5--|
||-----------------------------------------------------------------8|
||------------------------------------------------------------------|
|                                                                   |
|Lead Right                                                         |
||------------------------------------------------------------------|
||------------------------------------------------------------------|
||--REST------------------------------------------------------------|
||------------------------------------------------------------------|
||------------------------------------------------------------------|
||------------------------------------------------------------------|
|                                                                   |
|Rhythm Left & Right                                                |
||------------------------------------------------------------------|
||------------------------------------------------------------------|
||------------------------------------------------------------------|
||------------------------------------------------------------------|
||------------------------------------------------------------------|
||-3333333333336666111111111111334433333333333311113333333333333333-|
   ................................................................


|------------------------------------------------------------------||
|------------------------------------------------------------------||
|------------------------------------------------------------------||
|-5----5-7---7h8p7---7-8---8h10p8----8/10-12-10h12p10-8-7-7h8-7-5--||
|-----------------------------------------------------------------8||
|------------------------------------------------------------------||
|                                                                   |
|                                                                   |
|------------------------------------------------------------------||
|------------------------------------------------------------------||
|-3----3-5---5h7p5---5-7---7h8-p7----7/8--10-8-h10p8--7-5-5h7-5-3--||
|-----------------------------------------------------------------7||
|------------------------------------------------------------------||
|------------------------------------------------------------------||
|                                                                   |
|                                                                   |
|------------------------------------------------------------------||
|------------------------------------------------------------------||
|------------------------------------------------------------------||
|------------------------------------------------------------------||
|------------------------------------------------------------------||
|-3333333333336666111111111111334433333333333311113333333333333333-||
  ................................................................


Outro (2:24)
||---------------------------------------||
||---------------------------------------||
||---------------------------------------||
||-8---8---8-----------------------------||
||-------------8---8---8---10-------\----||
||---------------------------------------||
|                                         |
|                                         |
||---------------------------------------||
||---------------------------------------||
||-7---7---7-----------------------------||
||-------------7---7---7---8--------\----||
||---------------------------------------||
||---------------------------------------||
|                                         |
|                                         |
||---------------------------------------||
||---------------------------------------||
||---------------------------------------||
||---------------------------------------||
||-8---8---8---3---3---3---5--------\----||
||-6---6---6---1---1---1---3--------\----||
comments
We did not receive enough feedback on this tab! Please rate:
print report bad tab
1 2 3 4 5
I want to post or [tab]
guest
You may want to rate the tab now too:
select rating
Please do not post tabs as comments. Select "correction" instead!