Oops, an error
Loading. Please wait.

Beyond The Valley Of The Murderdolls Tab

3,226 views 3 this week
1 commentread comment
1 2 3 4 5
excellent!
x 4
Autoscroll
+/-
esc
set tempo
stop
Contributor
Difficulty
intermediate
Hey! There's an official Ultimate Guitar app which is ideal
for learning songs when you're away from computer. Get the app
WARNING: You are trying to view
                                    content from Ultimate-Guitar.com
                                    in an unauthorized application,
                                    which is prohibited.

                                    Please use an official Ultimate
                                    Guitar Tabs application for iPhone,
                                    iPad or Android to access legitimate
                                    chords, guitar, bass, and drum tabs
                                    from Ultimate-Guitar.com database.

                                    Type "ultimate guitar tabs" in Apple
                                    App Store's or Android Market's
                                    search to find the application.
1. Slit My Wrist

Intro/Verse
E|---------------------------------------------------------------|
B|---------------------------------------------------------------|
G|---------------------------------------------------------------|
D|---------------------------------------------------------------|
A|---------------------------------------------------------------|
E|-0-0-3-3-0-0-3-3-0-0-3-0--0-3-0--0-0-0-0-0-0-3^--3-3-3-3-3-3---|
N.H. |---| |---| |-| |-------------------------------------------|

Intro/Verse
E|---------------------------------|
B|---------------------------------|
G|---------------------------------|
D|---------------------------------|
A|-2-2-2-2-2-2-2-2-2-2-2-2-5-5-5-5-|
E|-0-0-0-0-0-0-0-0-0-0-0-0-3-3-3-3-|

Chorus
E|--------------------------------|
B|--------------------------------|
G|--------------------------------|
D|--------------------------------|
A|-8-2--2-5-5-7-7--8-2--2-8-8-7-5-|
E|-6-0--0-3-3-5-5--6-0--0-6-6-5-3-|

E|-----------------------------------------------|
B|-----------------------------------------------|
G|-----------------------------------------------|
D|-----------------------------------------------|
A|-8-2--2-5-5-7-7--8--8--8-8-8-8-7-7-7-7-7-7-7-7-|
E|-6-0--0-3-3-5-5--6--6--6-6-6-6-5-5-5-5-5-5-5-5-|

Verse 2 (Variation)
E|---------------------------------------------------------------|
B|---------------------------------------------------------------|
G|---------------------------------------------------------------|
D|---------------------------------------------------------------|
A|---------------------------------------------------------------|
E|-0-0-3-3-0-0-3-3-0-0-3-0--0-3-0--0-0-0-0-0-0-3^----------------|
N.H. |---| |---| |-| |-------------------------------------------|

Verse 2 (Variation)
E|---------------------------------|
B|---------------------------------|
G|---------------------------------|
D|---------------------------------|
A|-2-2-2-2-2-2-2-2-2-2-2-2-5-7-5-5-|
E|-0-0-0-0-0-0-0-0-0-0-0-0-3-5-3-3-|

Solo/Interlude
E|-----------------------------------|
B|-----------------------------------|
G|-----------------------------------|
D|-----------------------------------|
A|-2-2-2-2-5-5-7-7--2-2-2-2-8-8-7-7--|
E|-0-0-0-0-3-3-5-5--0-0-0-0-6-6-5-5--|

E|-----------------------------------|
B|-----------------------------------|
G|-----------------------------------|
D|-----------------------------------|
A|-----------------------------------|
E|-0-0-0-0-0-0-0-0-3-3-3-5-5-5-5-5---|
PM|----------------------------------|

E|-----------------------------------|
B|-----------------------------------|
G|-----------------------------------|
D|-----------------------------------|
A|-----------------------------------|
E|-0-0-0-0-0-0-0-0-6-6-6-5-5-5-5-5---|
PM|----------------------------------|

Solo/Interlude (Variation)
E|------------------------------------|
B|------------------------------------|
G|------------------------------------|
D|------------------------------------|
A|-2-2-2-2-5-5-7-7--2-2-2-2-8----7----|
E|-0-0-0-0-3-3-5-5--0-0-0-0-6----5----|

E|------------------------------------------|
B|------------------------------------------|
G|------------------------------------------|
D|------------------------------------------|
A|-2-2---2-2---2-2--2--2---2--2--2--2--5----|
E|-0-0---0-0---0-0--0--0---0--0--0--0--3----|

Outro
E|------------------------------------------------------------------|
B|------------------------------------------------------------------|
G|------------------------------------------------------------------|
D|------------------------------------------------------------------|
A|------------------------------------------------------------------|
E|-0-0-3-3-0-0-3-3-0-0-3-0--0-3-0--0-0-0-0-0-0-3^------3r^----------|
N.H. |---| |---| |-| |----------------------------------------------|

2. Twist My Sister

Intro

E|------------------------------|
B|------------------------------|
G|------------------------------|
D|--5-2-5-2-5-2--2-5-2-5-2------| x4
A|--5-2-5-2-5-2--2-5-2-5-2------|
E|--3-0-3-0-3-0--0-3-0-3-0------|

Verse

E|--------------------------------|
B|--------------------------------|
G|--------------------------------|
D|--5-2-5-2-5-2--2-5-2-5-2--------|
A|--5-2-5-2-5-2--2-5-2-5-2--------|
E|--3-0-3-0-3-0--0-3-0-3-0--------|
        . . . .    . . . .

Bridge

E|--------------------------------------------|
B|--------------------------------------------|
G|--------------------------------------------|
D|--5-2-5-2-5-2-5-2-5-2-5-2-5-2-5-------------|
A|--5-2-5-2-5-2-5-2-5-2-5-2-5-2-5-------------|
E|--3-0-3-0-3-0-3-0-3-0-3-0-3-0-3-------------|

Bridge (cont.) (the last 7 7 5's are played
more than listed. I didnt have enough room
too put them all in.)

E|--------------------------------------------------------------|
B|--------------------------------------------------------------|
G|-------------------------------------------7-7-7-7-7-7-7------|
D|--10-7-10-7-10-7-10-7-10-7-10-7-10-7-10--7-7-7-7-7-7-7-7------|
A|--10-7-10-7-10-7-10-7-10-7-10-7-10-7-10--7-5-5-5-5-5-5-5------|
E|--8--5-8--5-8--5-8--5-8--5-8--5-8--5-8---5--------------------|
                                                 . . . . . .

Chorus

E|--------------------------------------|
B|--------------------------------------|
G|--------------------------------------|
D|--2-2-5-5-2-2-5-5-2-2-5-5-2-2-5-------| x4
A|--2-2-5-5-2-2-5-5-2-2-5-5-2-2-5-------|
E|--0-0-3-3-0-0-3-3-0-0-3-3-0-0-3-------|

3. Dead In Hollywood

Intro	Verse - 1st Guitarist		Verse - 2nd Guitarist
|----------||-----------------------------||-12-12-12-12-12-12-12-12--||--|
|---------o||----------------------------o||-17-17-17-17-17-17-17-17-o||--|
|----------||-----------------------------||--------------------------||--|
|-2-2-3-2--||-2-2-3-2--2-2--2-2-3-2--2-2--||--------------------------||--|
|-2-2-3-2-o||-2-2-3-2--2-2--2-2-3-2--2-2-o||-------------------------o||--|
|-0-0-1-0--||-0-0-1-0--0-0--0-0-1-0--0-0--||--------------------------||--|

Pre-Chorus - Both Guitarists
|---------------------------------|----------------------------|--|
|---------------------------------|----------------------------|--|
|---------------------------------|----------------------------|--|
|-5-5-5-5-5-5-5-5-4-4-4-4-3-3-3-3-|-2-2-3-2--2-2--2-2-3-2--2-2-|--|
|-5-5-5-5-5-5-5-5-4-4-4-4-3-3-3-3-|-2-2-3-2--2-2--2-2-3-2--2-2-|--|
|-3-3-3-3-3-3-3-3-2-2-2-2-1-1-1-1-|-0-0-1-0--0-0--0-0-1-0--0-0-|--|


|---------------------------------|--|
|---------------------------------|--|
|---------------------------------|--|
|-5-5-5-5-5-5-5-5-4-4-4-4-3-3-3-3-|--|
|-5-5-5-5-5-5-5-5-4-4-4-4-3-3-3-3-|--|
|-3-3-3-3-3-3-3-3-2-2-2-2-1-1-1-1-|--|


Chorus - Both Guitarists
|------------------|---------------------||--|
|------------------|--------------------o||--|
|----5-------------|----5---------10-10--||--|
|-2--5----5-5--7-8-|-2--5----5-5--10-10--||--|
|-2--3----5-5--7-8-|-2--3----5-5---8--8-o||--|X = dead palm (no note)
|-0----XX-3-3--5-6-|-0----XX-3-3---------||--|

Pre-Solo - 1st Guitarist
|-----------------------------|
|-----------------------------|
|-----------------------------|
|-2-2-3-2--2-2-3-2------------|
|-2-2-3-2--2-2-3-2------------|
|-0-0-1-0--0-0-1-0--1-/12\-1--|


SOLO - 2nd Guitarist     (this solo is nowhere near 100% correct, just a basic guide)
|--------------------------------------------------------------------------------------------------|
|--------------------------------------------------------------------------------------------------|
|-7b-7b-7b-7b-7b-7b-6b-6b-6b-5b-5b-5b--------------------------------------------------------------|

= AH
|----------------------------------------------------7--*5-*4-*3-----------------------------------|
|-----------------------------------------------------------------*6b--*3----/7-9-8-10-9-11-10-12--|
								       ~~    PM...................

|------------------------------------------------------|
|------------------------------------------------------|
|-------------------14b--------------------------------|
|-------------12-14-----------14-12-14-----------------|
|-------12-14---------------------------12-14----------|
|-12-14------------------------------------------------|
PM................

4. Love At First Fright

Riff 1:
------------------------------------------------------------------------------|
------------------------------------------------------------------------------|
------------------------------------------------------------------------------|
-5~~--------------------------------------------------------------------------|
-3~~-5~~-7~~-3--3-3-3-3-3-3-5-5-5-5-5-5-5-------------------------------------|
-----3~~-5~~-1--1-1-1-1-1-1-3-3-3-3-3-3-3-------------------------------------|
                PM.......................


Riff 2:
------------------------------------------------------------------------------|
------------------------------------------------------------------------------|
------------------------------------------------------------------------------|
-5-5-5-5-5-5-5-5--------------------------------------------------------------|
-3-3-3-3-3-3-3-3-5-5-5-5-5-5-5-5-7-7-7-7-7-7-7-7-3-3-3-3-5-5-5-5--------------|
-----------------3-3-3-3-3-3-3-3-5-5-5-5-5-5-5-5-1-1-1-1-3-3-3-3--------------|

Riff 3:
---------------x-x-x-x-x-x----------------------------------------------------|
---------------x-x-x-x-x-x----------------------------------------------------|
---------------x-x-x-x-x-x----------------------------------------------------|
---------------x-x-x-x-x-x----------------------------------------------------|
-3--3--3-3-3-5-x-x-x-x-x-x----------------------------------------------------|
-1--1--1-1-1-3-x-x-x-x-x-x----------------------------------------------------|

Riff 4:
------------------------------------------------------------------------------|
------------------------------------------------------------------------------|
------------------------------------------------------------------------------|
------------------------------------------------------------------------------|
-3--3-3-3-3-3-3-5-5-5-5-5-5-5-------------------------------------------------|
-1--1-1-1-1-1-1-3-3-3-3-3-3-3-------------------------------------------------|
    PM.......................


Riff 5:
------------------------------------------------------------------------------|
------------------------------------------------------------------------------|
------------------------------------------------------------------------------|
-5-5-5-5-5-5-5-5--------------------------------------------------------------|
-3-3-3-3-3-3-3-3-5-5-5-5-5-5-5-5-7-7-7-7-7-7-7-7-3-3-3-3-5-5-5-5--------------|
-----------------3-3-3-3-3-3-3-3-5-5-5-5-5-5-5-5-1-1-1-1-3-3-3-3--------------|
 Gtr 1

-8---7---5---3---8---7---5---3---8---7---5---3---1-------3--------------------|
------------------------------------------------------------------------------|
------------------------------------------------------------------------------|
------------------------------------------------------------------------------|
------------------------------------------------------------------------------|
------------------------------------------------------------------------------|
 Gtr 2. tremelo picking

Riff 6:
------------------------------------------------------------------------------|
------------------------------------------------------------------------------|
------------------------------------------------------------------------------|
------------------------------------------------------------------------------|
-10-x-x-10-x-10-10-x-10-x-x-10-x-x-10-x-x-10-12-11-10-------------------------|
-8--x-x-8--x-8--8--x-8--x-x-8--x-x-8--x-x-8--10-9--8--------------------------|

Riff 7:
------------------------------------------------------------------------------|
------------------------------------------------------------------------------|
------------------------------------------------------------------------------|
------------------------------------------------------------------------------|
-10-x-x-10-x-10-10-x-10-x-x-5-x-x-5-x-5-5-x-5-x-x-7-x-x-7-x-7-7-x-7-x-x-3-x---|
-8--x-x-8--x-8--8--x-8--x-x-3-x-x-3-x-3-3-x-3-x-x-5-x-x-5-x-5-5-x-5-x-x-1-x---|


------------------------------------------------------------------------------|
------------------------------------------------------------------------------|
------------------------------------------------------------------------------|
------------------------------------------------------------------------------|
-x-3-x-x-5-5-5-5-5-5-5-5------------------------------------------------------|
-x-1-x-x-3-3-3-3-3-3-3-3------------------------------------------------------|

Riff 8:
------------------------------------------------------------------------------|
------------------------------------------------------------------------------|
------------------------------------------------------------------------------|
------------------------------------------------------------------------------|
-3--3-3-3-3-3-3-5~~-----------------------------------------------------------|
-1--1-1-1-1-1-1-3~~----->>>>>>>>>-PICK-SCRAPE->>>>>>>>>-----------------------|

Riff 9:
------------------------------------------------------------------------------|
------------------------------------------------------------------------------|
------------------------------------------------------------------------------|
-5-5-5-5-5-5-5-5--------------------------------------------------------------|
-3-3-3-3-3-3-3-3-5-5-5-5-5-5-5-5-7-7-7-7-7-7-7-7-3-3-3-3-5-5-5-5--------------|
-----------------3-3-3-3-3-3-3-3-5-5-5-5-5-5-5-5-1-1-1-1-3-3-3-3--------------|


------------------------------------------------------------------------------|
------------------------------------------------------------------------------|
------------------------------------------------------------------------------|
-5-5-5-5-5-5-5-5--------------------------------------------------------------|
-3-3-3-3-3-3-3-3-5-5-5-5-5-5-5-5-7-7-7-7-7-7-7-7-3-3-3-3--3-3-3-3--5-5-5-5----|
-----------------3-3-3-3-3-3-3-3-5-5-5-5-5-5-5-5-1-1-1-1--1-1-1-1--3-3-3-3----|


------------------------------------------------------------------------------|
------------------------------------------------------------------------------|
------------------------------------------------------------------------------|
----------5~~------------------------------------5----------------------------|
-5-5-5-5--3~~------------------------------------3----------------------------|
-3-3-3-3------->>>>>>>>>-PICK-SCRAPE->>>>>>>>>--------------------------------|


5. People Hate Me

intro/riff 1
e -------------------------------------------------------------------------|
B -------------------------------------------------------------------------|
G -------------------------------------------------------------------------|
D -------------------------------------------------------------------------|
A -------------------------------------------------------------------------|
E -0-0-1-2-3-0-7-6-0-3-4-5-0-5-4-3---0-0-1-2-3-0-7-6-0-3-4-5-0-12-11-10----|

e -------------------------------------------------------------------------|
B -------------------------------------------------------------------------|
G -------------------------------------------------------------------------|
D ----------------------------------2-x-5-x-7/8-x-5-7----------------------|
A ----------------------------------2-x-5-x-7/8-x-5-7----------------------|
E -0-0-1-2-3-0-7-6-0-3-4-5-0-5-4-3--0-x-3-x-5/6-x-3-5--6-5-3---------------|


riff 2
e -------------------------------------------------------------------------|
B -------------------------------------------------------------------------|
G -------------------------------------------------------------------------|
D -------------------------------------------------------------------------|
A -------------------------------------------------------------------------|
E -0-0-1-2-3-0-7-6-0-3-4-5-0-5-4-3---0-0-1-2-3-0-7-6-0-3-4-5-0-12-11-10----|

e -------------------------------------------------------------------------|
B -------------------------------------------------------------------------|
G -------------------------------------------------------------------------|
D ----------------------------------2-x-5-x-7/8-x-5-7--------2-------------|
A ----------------------------------2-x-5-x-7/8-x-5-7--------2-------------|
E -0-0-1-2-3-0-7-6-0-3-4-5-0-5-4-3--0-x-3-x-5/6-x-3-5--6-5-3-0-------------|

verse
e --------------------------------------------------------0----------------|
B --------------------------------------------------------0----------------|
G -------------------------------------------------------------------------|
D -----------------------------------2-------------------------------------|
A -----------------------------------2-let it ring-------------------------|
E -0-0-1-2-3-0-7-6-0-3-4-5-0-5-4-3---0-------------------------------------| x 3

e -------------------------------------------------------------------------|
B -------------------------------------------------------------------------|
G -------------------------------------------------------------------------|
D -------------------------------------------------------------------------|
A –------------------------------------------------------------------------|
E -0-0-1-2-3-0-7-6-0-3-4-5-0-12-11-10--------------------------------------| x 1

riff 3
e -------------------------------------------------------------------------|
B -------------------------------------------------------------------------|
G -------------------------------------------------------------------------|
D -7-7-7-7-7-5---7-7-7-7-7-5---7--5--7--5--7--10--10—-10--2----------------|
A -7-7-7-7-7-5---7-7-7-7-7-5---7--5--7--5--7--10--10—-10--2----------------|
E -5-5-5-5-5-3---5-5-5-5-5-3---5--3--5--3--5---8---8---8--0----------------|

riff 4
e -------------------------------------------------------------------------|
B -------------------------------------------------------------------------|
G -9-9-11-12---9-9-11-12-----9---------------------------------------------|
D -9-9-11-12---9-9-11-12-----9-8-------------------------------------------|
A -7-7--9-10---7-7--9-10-----7-8-------------------------------------------|
E -----------------------------6-------------------------------------------|

e -------------------------------------------------------------------------------|
B -------------------------------------------------------------------------------|
G -------------------------------------------------------------------------------|
D -9-----8-----7------6---5------------------------------------------------------|
A -9-----8-----7------6---5------------------------------------------------------|
E -7-----6-----5------4---3------------------------------------------------------|

chorus
e --------------------------------------------------------------------------|
B --------------------------------------------------------------------------|
G --------------------------------------------------------------------------|
D --5----2-----10----5-5-5-5-5---5---2---10--5-5-6-6-7-7-8------------------|
A --5----2-----10----5-5-5-5-5---5---2---10--5-5-6-6-7-7-8------------------|
E --3----0------8----3-3-3-3-3---3---0----8--3-3-4-4-5-5-6------------------|

e --------------------------------------------------------------------------|
B --------------------------------------------------------------------------|
G --------------------------------------------------------------------------|
D --5---2------10----5-5-5-5-5-5---7-7-7-7-6-6-6-6-5-5-5-5-4-4-3-3----------|
A --5---2------10----5-5-5-5-5-5---7-7-7-7-6-6-6-6-5-5-5-5-4-4-3-3----------|
E --3---0-------8----3-3-3-3-3-3---5-5-5-5-4-4-4-4-3-3-3-3-2-2-1-1----------|

riff 5
e --------------------------------------------------------------------------|
B --------------------------------------------------------------------------|
G --------------------------------------------------------------------------|
D -2-------------2-5-2------5-5-6-6-7-7--2----------------------------------|
A -2-------------2-5-2------5-5-6-6-7-7--2----------------------------------|
E -0-------------0-3-0------3-3-4-4-5-5--0----------------------------------|


riff 6
e -------------------------------------------------------------------------|
B -------------------------------------------------------------------------|
G -9-9-9--10-10-10--11-11-11--12-12-12--13-13--14-14-----------------------|
D -9-9-9--10-10-10--11-11-11--12-12-12--13-13--14-14-----------------------|
A -7-7-7---8--8--8---9--9--9--10-10-10--11-11--12-12-----------------------|
E -------------------------------------------------------------------------|

rhythm for solo
e -------------------------------------------------------------------------|
B -------------------------------------------------------------------------|
G -------------------------------------------------------------------------|
D -2--5-2-5-7-8---2--5-2-8-7-5---------------------------------------------|
A -2--5-2-5-7-8---2--5-2-8-7-5---------------------------------------------|
E -0--3-0-3-5-6---0--3-0-6-5-3---------------------------------------------|

e -------------------------------------------------------------------------|
B -------------------------------------------------------------------------|
G -7-7-7---6-6-6---5-5-5---4-4-4-4-4-4-------------------------------------|
D -7-7-7---6-6-6---5-5-5---4-4-4-4-4-4-------------------------------------|
A -5-5-5---4-4-4---3-3-3---2-2-2-2-2-2-------------------------------------|
E -------------------------------------------------------------------------|

e -------------------------------------------------------------------------|
B -------------------------------------------------------------------------|
G -------------------------------------------------------------------------|
D -7-7-7--6-6-6--5-5-5--4-4-4--3-3-3-3----2--------------------------------|
A -7-7-7--6-6-6--5-5-5--4-4-4--3-3-3-3----2--------------------------------|
E -5-5-5--4-4-4--3-3-3--2-2-2--1-1-1-1----0--------------------------------|
                                   pm..


6. She Was A Teenage Zombie

Intro Riff(s):                   2x                       4x
E|---------------------------------|------------------------|
B|-------15---12--------15---12----|------------------------|
G|--12-------------12--------------|------------------------|
D|---------------------------------|------------------------|
A|---------------------------------|------------------------|
E|---------------------------------|--2-2--3-3--2-2--3-3----|

Then Play This:
 Guitar 1:              4x  Guitar 2:                     4x
 |------------------------| |-------------------------------|
 |------------------------| |-------------------------------|
 |------------------------| |-11-11--12-12--11-11--12-12----|
 |--4-4--5-5--4-4--5-5----| |-------------------------------|
 |--4-4--5-5--4-4--5-5----| |-------------------------------|
 |--2-2--3-3--2-2--3-3----| |-------------------------------|

Verse Riff(s):
 Guitar 1:                                                2x
 |----------------------------------------------------------|
 |----------------------------------------------------------|
 |------------------------------------------9.--5.---5------|
 |--4-4--5-5--4-4--5-5--4-4--5-5--4-4--5-5--9.--5.-----5----|
 |--4-4--5-5--4-4--5-5--4-4--5-5--4-4--5-5--7.--3.----------|
 |--2-2--3-3--2-2--3-3--2-2--3-3--2-2--3-3------------------|

                        2x
 |------------------------|------------|
 |------------------------|------------|
 |------------------------|------5.----|
 |--4-4--5-5--4-4--5-5----|--2.--5.----|
 |--4-4--5-5--4-4--5-5----|--2.--3.----|
 |--2-2--3-3--2-2--3-3----|--0.--------|

                        2x
 |------------------------|---------------------------------|
 |------------------------|---------------------------------|
 |------------------------|--9.--5.--7~--7-7-7-7-7-7-7-7----|
 |--4-4--5-5--4-4--5-5----|--9.--5.--7~--7-7-7-7-7-7-7-7----|
 |--4-4--5-5--4-4--5-5----|--7.--3.--5~--5-5-5-5-5-5-5-5----|
 |--2-2--3-3--2-2--3-3----|---------------------------------|
P.M.                                     . . . . . . . .

Guitar 2:                       2x
 |--------------------------------|--------------|
 |--------------------------------|--15.---------|
 |--11-11--12-12--11-11--12-12----|-------17.----|
 |--------------------------------|--------------|
 |--------------------------------|--------------|
 |--------------------------------|--------------|

Chorus Riff:
 Guitar 1:                          4x  Guitar 2:        4x
 |------------------------------------| |------------------|
 |------------------------------------| |-------15---12----|
 |------------------------------------| |--12--------------|
 |--5.--3.--2.------------------------| |------------------|
 |--5.--3.--2.--9-9--7-7--------------| |------------------|
 |--3.--1.--0.------------9-9--7-7----| |------------------|

Little Fill Thingy After The 2nd Verse:
|---------------------------------------------|
|---------------------------------------------|
|---------------------------------------------|
|--4-4-5-5-6-6-7-7-8-8-9-9-10-10-11-11-12~----|
|---------------------------------------------|
|---------------------------------------------|

7. Die My Bride

INTRO/VERSE 1

EI--------------|I
BI----8-7-------|I
GI-9------I X 4-|
DI--------------|I
AI--------------|I
EI--------------|I

CHORUS

EI------------------------------------------------------------|I
BI------------------------------------------------------------|I
GI------------------------------------------------------I X 1-|
DI-2-2-3-4-2-2--2-2-3-4-2-2--2-2-3-4-2-2--2-2-3-4-7-5-2-------|I
AI-2-2-3-4-2-2--2-2-3-4-2-2--2-2-3-4-2-2--2-2-3-4-7-5-2-------|I
EI-0-0-1-2-0-0--0-0-1-2-0-0--0-0-1-2-0-0--0-0-1-2-5-3-0-------|I

PRE VERSE

EI-------I              EI----------------|I
BI-------I        2ND   BI----------------|I
GI-------I X 2  GUITAR  GI-12-11--9-I X 2-|
DI-5-4-2-I       PLAYS  DI----------------|I
AI-5-4-2-I              AI----------------|I
EI-3-2-0-I              EI----------------|I


VERSE 2 (NO GUITAR, JUST BASS)

PRE CHORUS

EI----------I                 EI----------------|I
BI----------I         2ND     BI-1211-109-------|I
GI----------I X 4    GUITAR   GI----------I X 4-|
DI-8-7--6-5-I        PLAYS    DI-9-8--7-6-------|I
AI-8-7--6-5-I                 AI----------------|I
EI-7-6--5-4-I                 EI----------------|I

8. Graverobbing USA

Intro/Verse

E|---------------------------------------------------------------|
B|---------------------------------------------------------------|
G|-------------------7-7\6/7----------5-5\4/5--------------------|
D|--5-5\4/5-x-x-x-x--7-7\6/7-x-x-x-x--5-5\4/5-x-x-x-x--5-5\4/5---|
A|--5-5\4/5-x-x-x-x--5-5\4/5-x-x-x-x--3-3\2/3-x-x-x-x--5-5\4/5---|
E|--3-3\2/3-x-x-x-x----------x-x-x-x----------x-x-x-x--3-3\2/3---|

Chorus

E|-----------------------------------------------------------|
B|-----------------------------------------------------------|
G|-------------------7-7-7-7-7-7-7-7--5-5-5-5-5-5-5-5--------|
D|--5-5-5-5-5-5-5-5--7-7-7-7-7-7-7-7--5-5-5-5-5-5-5-5--5-----|
A|--5-5-5-5-5-5-5-5--5-5-5-5-5-5-5-5--3-3-3-3-3-3-3-3--5-x8--|
E|--3-3-3-3-3-3-3-3------------------------------------3-----|

9. 197666

Riff 1. Verse GTR I&II
|-------------------------------------------------------------------|
|-------------------------------------------------------------------|
|-------------------------------------------------------------------|
|-------------------------------------------------------------------|
|----7\-----7\------10---5------7-7-7-7-7-7-7-7--x\-----------------|
|--0-5\---0-5\-------8---3------5-5-5-5-5-5-5-5--x\-----------------|
   .      .

GTR I&II
Just Strum And Listen For Timing…

Riff 2a    GTR I & II
|----------------------------|
|----------------------------|
|----------------------------|
|----------------------------|
|----7----10----5-----7------|
|----5-----8----3-----5------|

Riff 2b GTR I
|--------------------------------------|   |---------------------|
|--------------------------------------|   |---------------------|
|*------------------------------------*|   |---------------------|
|*------------------------------------*|2x |---------------------|
|--7-7--7/10-10--7-7--7/10-10--7~------|   |--5-----5/10---7-----|
|--5-5--5/-8--8--5-5--5/-8--8--5~------|   |--3-----3/-8---5-----|

Riff 2b GTR II
|--------------------------------------|   |---------------------|
|--------------------------------------|   |---------------------|
|*------------------------------------*|   |----------5----------|
|*-----7-7-10-10-7-7-10-10-7-7~-------*|2x |--5~----5----7~------|
|--------------------------------------|   |---------------------|
|--------------------------------------|   |---------------------|
Riff 3.
|-------------------------------------------------------------------|
|-------------------------------------------------------------------|
|-------------------------------------------------------------------|
|-------------------------------------------------------------------|
|--7-7-7-7-7-7-7-7--10--7-7-7-7-7-7-7-7--10---5~-----5--7-----------|
|--5-5-5-5-5-5-5-5---8--5-5-5-5-5-5-5-5---8---3~-----3--5-----------|

Riff 1, Again, with GTR I.

GTR II on the other hand, plays this…

|--17 etc--17-----------------------------12-12---------------------|
|--17------17--17---------17--13---13-13--12-12--13-etc-------------|
|--------------17--14-14--16--12---12-12---------12-----------------|
|------------------14-14--------------------------------------------|
|--------------------------------------------------------x\---------|
|--------------------------------------------------------x\---------|

Riff 2a & b and riff 3 once more

And then solo:

It opens with a pick slide and rhythm under solo is Riff 2a 2x.


|------------------------------------------------------------------|
|------15-15-15-15-13-13-13---------15-15-15-15-13-13-13-----------|
|--14~----------------------14--12~-----------------------14-12-12-|
|------------------------------------------------------------------|
|------------------------------------------------------------------|
|------------------------------------------------------------------|

|------------------------------------------------------------------|
|-15-15-15-15-13-13-13---------------------------------------------|
|----------------------14-14-12-14-12-14~/-------------------------|
|------------------------------------------------------------------|
|------------------------------------------------------------------|
|------------------------------------------------------------------|

|---------20-17-------20-17-------20-17----------------------------|
|-/17-17--------20-17-------20-17-------20-17\---------------------|
|------------------------------------------------------------------|
|------------------------------------------------------------------|
|------------------------------------------------------------------|
|------------------------------------------------------------------|

|--------20-17-------20-17-------20-17-------20-20bf---20-20br-17~-|
|-/17-17-------20-17-------20-17-------20-17-----------------------|
|------------------------------------------------------------------|
|------------------------------------------------------------------|
|------------------------------------------------------------------|
|------------------------------------------------------------------|


End with Riff 2b and Riff 3 and then Riff 2b again and then it’s a final riff
on the end of Riff 2b:


|-----------------------------------------------------------------------|
|-----------------------------------------------------------------------|
|-----------------------------------------------------------------------|
|-----------------------------------------------------------------------|
|-------7-7---5--7\-----------------------------------------------------|
|-------5-5---3--5\-----------------------------------------------------|
               . .

10. Dawn Of The Dead

Intro:
6 Seconds (00:47 - 00:53)
E ----------------------------------------------------------------------------------|
B ----------------------------------------------------------------------------------|
G ----------------------------------------------------------------------------------|
D ----------------------------------------------------------------------------------|
A ----7-7-7-7-7/6-6-6-6--2-2-2-2-2-2-2-2-----7-7-7-7/6-6-6-6------------------------|
E -----------------------------------------------------------4-4-4-4-4-4-4-4/8------|

Main Riff:
7 Seconds (00:53 - 01:00)
E --------------------------------------|
B --------------------------------------|
G --------------------------------------|
D --------------------------------------|
A ----2-2---4-4-4---6-6-4-6--x-x-x------|
E ----0-0---2-2-2---4-4-2-4--x-x-x------|

E -------------------------------------|
B -------------------------------------|
G -------------------------------------|
D -------------------------------------|
A ----2-2---4-4-4---6-6-4-6---6--------|
E ----0-0---2-2-2---4-4-2-4---4/12-----|

E --------------------------------------|
B --------------------------------------|
G --------------------------------------|
D --------------------------------------|
A ----2-2---4-4-4---6-6-4-6--x-x-x------|
E ----0-0---2-2-2---4-4-2-4--x-x-x------|

Bridge:
4 Seconds (01:00 - 01:04)
E -----------------------|
B -----------------------|
G -----------------------|
D -----------------------|
A ----2-2-2-2-4-4-4-4----|
E ----0-0-0-0-2-2-2-2----|

Chorus:
11 Seconds (01:04 - 01:15)
E ----------------------------------------------------------------------------------|
B -9-9-9-9-8-8-8-8---4-4-4-4-4-4-4-4----9-9-9-9-8-8-8-8-----------------------------|
G --------------------------------------------------------6-6-6-6-6-6-6-6-----------|
D ----------------------------------------------------------------------------------|
A ----------------------------------------------------------------------------------|
E ----------------------------------------------------------------------------------|
"When Tomorrow Comes..."

E ----------------------------------------------------------------------------------|
B -9-9-9-9-8-8-8-8---4-4-4-4-4-4-4-4----9-9-9-9-8-8-8-8-----------------------------|
G --------------------------------------------------------6-6-6-6-6-6-6-6/10--------|
D ----------------------------------------------------------------------------------|
A ----------------------------------------------------------------------------------|
E ----------------------------------------------------------------------------------|
"And Our Only Purpose Is..."

Main Riff:
7 Seconds (01:15 - 01:22)
E --------------------------------------|
B --------------------------------------|
G --------------------------------------|
D --------------------------------------|
A ----2-2---4-4-4---6-6-4-6--x-x-x------|
E ----0-0---2-2-2---4-4-2-4--x-x-x------|
"We Are The Dead And We're Coming For You"

E -------------------------------------|
B -------------------------------------|
G -------------------------------------|
D -------------------------------------|
A ----2-2---4-4-4---6-6-4-6---6--------|
E ----0-0---2-2-2---4-4-2-4---4/12-----|
"We Are The Dead And We're Coming For You"

E --------------------------------------|
B --------------------------------------|
G --------------------------------------|
D --------------------------------------|
A ----2-2---4-4-4---6-6-4-6--x-x-x------|
E ----0-0---2-2-2---4-4-2-4--x-x-x------|
"We Are The Dead And We're Coming For You..."

Bridge:
4 Seconds (01:22 - 01:26)
E -----------------------|
B -----------------------|
G -----------------------|
D -----------------------|
A ----2-2-2-2-4-4-4-4----|
E ----0-0-0-0-2-2-2-2----|
"Because We..."

Chorus:
11 Seconds (01:26 - 01:37)
E ----------------------------------------------------------------------------------|
B -9-9-9-9-8-8-8-8---4-4-4-4-4-4-4-4----9-9-9-9-8-8-8-8-----------------------------|
G --------------------------------------------------------6-6-6-6-6-6-6-6-----------|
D ----------------------------------------------------------------------------------|
A ----------------------------------------------------------------------------------|
E ----------------------------------------------------------------------------------|
"When Theres No More..."

E ----------------------------------------------------------------------------------|
B -9-9-9-9-8-8-8-8---4-4-4-4-4-4-4-4----9-9-9-9-8-8-8-8-----------------------------|
G --------------------------------------------------------6-6-6-6-6-6-6-6-----------|
D ----------------------------------------------------------------------------------|
A ----------------------------------------------------------------------------------|
E ----------------------------------------------------------------------------------|
"And The Living..."

Main Riff:
7 Seconds (01:37 - 01:44)
E --------------------------------------|
B --------------------------------------|
G --------------------------------------|
D --------------------------------------|
A ----2-2---4-4-4---6-6-4-6--x-x-x------|
E ----0-0---2-2-2---4-4-2-4--x-x-x------|

E -------------------------------------|
B -------------------------------------|
G -------------------------------------|
D -------------------------------------|
A ----2-2---4-4-4---6-6-4-6---6--------|
E ----0-0---2-2-2---4-4-2-4---4/12-----|

E --------------------------------------|
B --------------------------------------|
G --------------------------------------|
D --------------------------------------|
A ----2-2---4-4-4---6-6-4-6--x-x-x------|
E ----0-0---2-2-2---4-4-2-4--x-x-x------|

Bridge:
4 Seconds (01:44 - 01:48)
E -----------------------|
B -----------------------|
G -----------------------|
D -----------------------|
A ----2-2-2-2-4-4-4-4----|
E ----0-0-0-0-2-2-2-2----|

Chorus:
11 Seconds (01:48 - 01:59)
E ----------------------------------------------------------------------------------|
B -9-9-9-9-8-8-8-8---4-4-4-4-4-4-4-4----9-9-9-9-8-8-8-8-----------------------------|
G --------------------------------------------------------6-6-6-6-6-6-6-6-----------|
D ----------------------------------------------------------------------------------|
A ----------------------------------------------------------------------------------|
E ----------------------------------------------------------------------------------|
"Cant You See..."

E ----------------------------------------------------------------------------------|
B -9-9-9-9-8-8-8-8---4-4-4-4-4-4-4-4----9-9-9-9-8-8-8-8-----------------------------|
G --------------------------------------------------------6-6-6-6-6-6-6-6-----------|
D ----------------------------------------------------------------------------------|
A ----------------------------------------------------------------------------------|
E ----------------------------------------------------------------------------------|
"When The Dead..."


Main Riff:
7 Seconds (01:59 - 02:06)
E --------------------------------------|
B --------------------------------------|
G --------------------------------------|
D --------------------------------------|
A ----2-2---4-4-4---6-6-4-6--x-x-x------|
E ----0-0---2-2-2---4-4-2-4--x-x-x------|
"We Are The Dead And We're Coming For You"

E -------------------------------------|
B -------------------------------------|
G -------------------------------------|
D -------------------------------------|
A ----2-2---4-4-4---6-6-4-6---6--------|
E ----0-0---2-2-2---4-4-2-4---4/12-----|
"We Are The Dead And We're Coming For You"

E --------------------------------------|
B --------------------------------------|
G --------------------------------------|
D --------------------------------------|
A ----2-2---4-4-4---6-6-4-6--x-x-x------|
E ----0-0---2-2-2---4-4-2-4--x-x-x------|
"We Are The Dead And We're Coming For You..."

Bridge:
4 Seconds (02:06 - 02:10)
E -----------------------|
B -----------------------|
G -----------------------|
D -----------------------|
A ----2-2-2-2-4-4-4-4----|
E ----0-0-0-0-2-2-2-2----|
"Because We Are..."

Chorus:
22 Seconds (02:10 - 02:32)
E ----------------------------------------------------------------------------------|
B -9-9-9-9-8-8-8-8---4-4-4-4-4-4-4-4----9-9-9-9-8-8-8-8-----------------------------|
G --------------------------------------------------------6-6-6-6-6-6-6-6-----------|
D ----------------------------------------------------------------------------------|
A ----------------------------------------------------------------------------------|
E ----------------------------------------------------------------------------------|
"When Theres No More..."

E ----------------------------------------------------------------------------------|
B -9-9-9-9-8-8-8-8---4-4-4-4-4-4-4-4----9-9-9-9-8-8-8-8-----------------------------|
G --------------------------------------------------------6-6-6-6-6-6-6-6-----------|
D ----------------------------------------------------------------------------------|
A ----------------------------------------------------------------------------------|
E ----------------------------------------------------------------------------------|
"And The Living..."

E ----------------------------------------------------------------------------------|
B -9-9-9-9-8-8-8-8---4-4-4-4-4-4-4-4----9-9-9-9-8-8-8-8-----------------------------|
G --------------------------------------------------------6-6-6-6-6-6-6-6-----------|
D ----------------------------------------------------------------------------------|
A ----------------------------------------------------------------------------------|
E ----------------------------------------------------------------------------------|
"When Theres No More..."

E ----------------------------------------------------------------------------------|
B -9-9-9-9-8-8-8-8---4-4-4-4-4-4-4-4----9-9-9-9-8-8-8-8-----------------------------|
G --------------------------------------------------------6-6-6-6-6-6-6-6-----------|
D ----------------------------------------------------------------------------------|
A ----------------------------------------------------------------------------------|
E ----------------------------------------------------------------------------------|
"And The Living..."

Solo:
12 Seconds(02:32 - 02:44)
E ----------------------------------------------------------------------------------|
B -------7--------------------------------------------------------------------------|
G --8h9p---9-8h9p---8-9-8-----------------------------------------------------------|
D -----------------9-------9-9------------------------------------------------------|
A ----------------------------------------------------------------------------------|
E ----------------------------------------------------------------------------------|

E ----------------------------------------------------------------------------------|
B -------7--------------------------------------------------------------------------|
G --8h9p---9-8h9p---8-9-8-----------------------------------------------------------|
D -----------------9-------9-9------------------------------------------------------|
A ----------------------------------------------------------------------------------|
E ----------------------------------------------------------------------------------|

Main Riff:
7 Seconds (02:44 - 02:51)
E --------------------------------------|
B --------------------------------------|
G --------------------------------------|
D --------------------------------------|
A ----2-2---4-4-4---6-6-4-6--x-x-x------|
E ----0-0---2-2-2---4-4-2-4--x-x-x------|
"We Are The Dead And We're Coming For You"

E -------------------------------------|
B -------------------------------------|
G -------------------------------------|
D -------------------------------------|
A ----2-2---4-4-4---6-6-4-6---6--------|
E ----0-0---2-2-2---4-4-2-4---4/12-----|
"We Are The Dead And We're Coming For You"

E --------------------------------------|
B --------------------------------------|
G --------------------------------------|
D --------------------------------------|
A ----2-2---4-4-4---6-6-4-6--x-x-x------|
E ----0-0---2-2-2---4-4-2-4--x-x-x------|
"We Are The Dead And We're Coming For You..."

Bridge:
4 Seconds (02:51 - 02:55)
E -----------------------|
B -----------------------|
G -----------------------|
D -----------------------|
A ----2-2-2-2-4-4-4-4----|
E ----0-0-0-0-2-2-2-2----|
"Becasue We Are..."

Interlude
11 Seconds (02:55 - 03:06)
E ----------------------------------------------------------------------------------|
B -9-9-9-9-8-8-8-8---4-4-4-4-4-4-4-4----9-9-9-9-8-8-8-8-----------------------------|
G --------------------------------------------------------6-6-6-6-6-6-6-6-----------|
D ----------------------------------------------------------------------------------|
A ----------------------------------------------------------------------------------|
E ----------------------------------------------------------------------------------|
PM..................................................................................
"When Theres No More..."

E ----------------------------------------------------------------------------------|
B -9-9-9-9-8-8-8-8---4-4-4-4-4-4-4-4----9-9-9-9-8-8-8-8-----------------------------|
G --------------------------------------------------------6-6-6-6-6-6-6-6-----------|
D ----------------------------------------------------------------------------------|
A ----------------------------------------------------------------------------------|
E ----------------------------------------------------------------------------------|
PM..................................................................................
"And The Living..."

Repeat Solo (BackGround):
24 Seconds (03:06 - 03:30)
E ----------------------------------------------------------------------------------|
B -------7--------------------------------------------------------------------------|
G --8h9p---9-8h9p---8-9-8-----------------------------------------------------------|
D -----------------9-------9-9------------------------------------------------------|
A ----------------------------------------------------------------------------------|
E ----------------------------------------------------------------------------------|

E ----------------------------------------------------------------------------------|
B -------7--------------------------------------------------------------------------|
G --8h9p---9-8h9p---8-9-8-----------------------------------------------------------|
D -----------------9-------9-9------------------------------------------------------|
A ----------------------------------------------------------------------------------|
E ----------------------------------------------------------------------------------|

E ----------------------------------------------------------------------------------|
B -------7--------------------------------------------------------------------------|
G --8h9p---9-8h9p---8-9-8-----------------------------------------------------------|
D -----------------9-------9-9------------------------------------------------------|
A ----------------------------------------------------------------------------------|
E ----------------------------------------------------------------------------------|

E ----------------------------------------------------------------------------------|
B -------7--------------------------------------------------------------------------|
G --8h9p---9-8h9p---8-9-8-----------------------------------------------------------|
D -----------------9-------9-9------------------------------------------------------|
A ----------------------------------------------------------------------------------|
E ----------------------------------------------------------------------------------|

Main Riff:
9 Seconds (03:30 - 03:39)
E --------------------------------------|
B --------------------------------------|
G --------------------------------------|
D --------------------------------------|
A ----2-2---4-4-4---6-6-4-6--x-x-x------|
E ----0-0---2-2-2---4-4-2-4--x-x-x------|
"We Are The Dead And We're Coming For You"

E -------------------------------------|
B -------------------------------------|
G -------------------------------------|
D -------------------------------------|
A ----2-2---4-4-4---6-6-4-6---6--------|
E ----0-0---2-2-2---4-4-2-4---4/12-----|
"We Are The Dead And We're Coming For You"

E --------------------------------------|
B --------------------------------------|
G --------------------------------------|
D --------------------------------------|
A ----2-2---4-4-4---6-6-4-6--x-x-x------|
E ----0-0---2-2-2---4-4-2-4--x-x-x------|
"We Are The Dead And We're Coming For You"

E --------------------------------------|
B --------------------------------------|
G --------------------------------------|
D --------------------------------------|
A ----2-2---4-4-4---6-6-4-6--x-x-x------|
E ----0-0---2-2-2---4-4-2-4--x-x-x------|
"We Are The Dead And We're Coming For You"

Ending:
4 Seconds (03:39 - 03:43)
E -----------------------|
B -----------------------|
G -----------------------|
D -----------------------|
A ----2-2-2-2-4-4-4-4----|
E ----0-0-0-0-2-2-2-2----|

11. Let's Go To War

e|-----------------------|
B|-----------------------|
G|-----------------------|
D|---3-5---x-x-x-x-x-x---|
A|---3-5---x-x-x-x-x-x---|
E|-0-1-3-0-x-x-x-x-x-x---|
           + + + + + +

After playing the riff above three or four times play:

e|----------------------------------|
B|----------------------------------|
G|----------------------------------|
D|---8-8----8-8---8--x-x-x-x-x-x----|
A|---8-8----8-8---8--x-x-x-x-x-x----|
E|-0-6-6--0-6-6-0-6--x-x-x-x-x-x----|

Or sometimes, usually to go into a verse play:

e|------------------------------|
B|------------------------------|
G|------------------------------|
D|---8----8------x-x-x-x-x-x----|
A|---8----8------x-x-x-x-x-x----|
E|-0-6--0-6-0-0--x-x-x-x-x-x----|

Prechorus:

e|--------------------|
B|--------------------|
G|-7-7-7-7-7-7-7-7-7--|
D|-7-7-7-7-7-7-7-7-7--|
A|-5-5-5-5-5-5-5-5-5--|
E|--------------------|
   * * * * * * * * *

Chorus:
You can strum as much as you want on each chord,
especially the last one of each phrase.

e|--------------------------------------|
B|--------------------------------------|
G|-7-5----------------------------------|
D|-7-5-7-8-7-5/7\5-------8-7-5-3-2-3-2--|
A|-5-3-7-8-7-5/7\5-------8-7-5-3-2-3-2--|
E|-----5-6-5-3/5\3-------6-5-3-1-0-1-0--|

Heavier bit:

e|---------------------------|
B|---------------------------|
G|---------------------------|
D|-2-3-5-2-2-2-2-2-2-2-2-2---|
A|-2-3-5-2-2-2-2-2-2-2-2-2---|
E|-0-1-3-0-0-0-0-0-0-0-0-0---|

Variation of riff under solo:

e|--------------------|
B|--------------------|
G|--------------------|
D|-8-7-3-2-2-2-2-2-2--|
A|-8-7-3-2-2-2-2-2-2--|
E|-6-5-5-0-0-0-0-0-0--|

12. Dressed To Depress

Intro
D -6-6-6-6-6-6-6-6-6-6-6-6-6-6-6-6-6-6-6-6-6-6-6-6-6-6-6-6-6-6-6-6-|
A -6-6-6-6-6-6-6-6-6-6-6-6-6-6-6-6-6-6-6-6-6-6-6-6-6-6-6-6-6-6-6-6-|
E -4-4-4-4-4-4-4-4-4-4-4-4-4-4-4-4-4-4-4-4-4-4-4-4-4-4-4-4-4-4-4-4-|
  [..........palm.muted...........]

D -6-6-6-6-6-6-6-6-6-6-6-6-6-6-6-6-6-6-6-6-6-6-6-6-14\------------|
A -6-6-6-6-6-6-6-6-6-6-6-6-6-6-6-6-6-6-6-6-6-6-6-6-12\------------|
E -4-4-4-4-4-4-4-4-4-4-4-4-4-4-4-4-4-4-4-4-4-4-4-4----------------|
  [..........palm.muted...........]

Verse A
G -6-6-6-6-6-6-6-6-------------------------------------------------|
D -6-6-6-6-6-6-6-6-6-6-6-6-6-6-6-6-7-7-7-7-7-7-7-7-2-2-2-2-2-2-2-2-|
A -4-4-4-4-4-4-4-4-6-6-6-6-6-6-6-6-7-7-7-7-7-7-7-7-2-2-2-2-2-2-2-2-|
E -----------------4-4-4-4-4-4-4-4-5-5-5-5-5-5-5-5-0-0-0-0-0-0-0-0-|

G -6-6-6-6-6-6-6-6---------------------------------9-9-9-9-7-7-7-7-|
D -6-6-6-6-6-6-6-6-6-6-6-6-6-6-6-6-7-7-7-7-7-7-7-7-9-9-9-9-7-7-7-7-|
A -4-4-4-4-4-4-4-4-6-6-6-6-6-6-6-6-7-7-7-7-7-7-7-7-7-7-7-7-5-5-5-5-|
E -----------------4-4-4-4-4-4-4-4-5-5-5-5-5-5-5-5-----------------|

Verse B
G -6m--6m--6m--6m-------------------------------------------------|
D -6m--6m--6m--6m--6m--6m--6m--6m--7m--7m--7m--7m--2m--2m--2m--2m-|
A -4m--4m--4m--4m--6m--6m--6m--6m--7m--7m--7m--7m--2m--2m--2m--2m-|
E -----------------4m--4m--4m--4m--5m--5m--5m--5m--0m--0m--0m--0m-|

G -6m--6m--6m--6m----------------------------------9-9-9-9-7-7-7-7-|
D -6m--6m--6m--6m--6m--6m--6m--6m--7m--7m--7m--7m--9-9-9-9-7-7-7-7-|
A -4m--4m--4m--4m--6m--6m--6m--6m--7m--7m--7m--7m--7-7-7-7-5-5-5-5-|
E -----------------4m--4m--4m--4m--5m--5m--5m--5m------------------|

Verse C
G -6-6-6-6-6-6-6-6---------------------------------9-9-9-9-7-7-7-7-|
D -6-6-6-6-6-6-6-6-6-6-6-6-6-6-6-6-7-7-7-7-7-7-7-7-9-9-9-9-7-7-7-7-|
A -4-4-4-4-4-4-4-4-6-6-6-6-6-6-6-6-7-7-7-7-7-7-7-7-7-7-7-7-5-5-5-5-|
E -----------------4-4-4-4-4-4-4-4-5-5-5-5-5-5-5-5-----------------|

Chorus A
D -4---4-------4-7---------7---7---2---2-------2-2----------------|
A -4---4-------4-7---------7---7---2---2-------2-2----------------|
E -2---2-------2-5---------5---5---0---0-------0-0---------3^-----|

D -4---4-------4-7---------7---7---2---2-------2-2-2m--2m--2m-----|
A -4---4-------4-7---------7---7---2---2-------2-2-2m--2m--2m-----|
E -2---2-------2-5---------5---5---0---0-------0-0-0m--0m--0m-----|

Chorus B
e -------------------------------------------------0--------------|
B -------------------------------------------------0--------------|
G ----------------------------------------------------------------|
D -4---4-------4-7---------7---7---2---2-------2-2----------------|
A -4---4-------4-7---------7---7---2---2-------2-2----------------|
E -2---2-------2-5---------5---5---0---0-------0-0---------3^-----|

D -4---4-------4-7---------7---7---2---2-------2-2-2m--2m--2m-----|
A -4---4-------4-7---------7---7---2---2-------2-2-2m--2m--2m-----|
E -2---2-------2-5---------5---5---0---0-------0-0-0m--0m--0m-----|

==============
===GUITAR=2===
==============

Intro
G ---------------------------------8-8-8-8-8-8-8-8-8-8-8-8-8-8-8-8-|
D -6-6-6-6-6-6-6-6-6-6-6-6-6-6-6-6-6-6-6-6-6-6-6-6-6-6-6-6-6-6-6-6-|
A -6-6-6-6-6-6-6-6-6-6-6-6-6-6-6-6---------------------------------|
E -4-4-4-4-4-4-4-4-4-4-4-4-4-4-4-4---------------------------------|
  [..........palm.muted...........]

G ---------------------------------8-8-8-8-8-8-8-8-14\------------|
D -6-6-6-6-6-6-6-6-6-6-6-6-6-6-6-6-6-6-6-6-6-6-6-6-12\------------|
A -6-6-6-6-6-6-6-6-6-6-6-6-6-6-6-6--------------------------------|
E -4-4-4-4-4-4-4-4-4-4-4-4-4-4-4-4--------------------------------|
  [..........palm.muted...........]

Verse A
A -4-5-4-----------4-5-4-----------4-5-5---4---4-5-----7----------

A -4-5-4-----------4-5-4-----------4-5-5---4---4-5-----7-----5----

Verse B
G -6m--6m--6m--6m-------------------------------------------------|
D -6m--6m--6m--6m--6m--6m--6m--6m--7m--7m--7m--7m-----------------|
A -4m--4m--4m--4m--6m--6m--6m--6m--7m--7m--7m--7m--7---7---5---5--|
E -----------------4m--4m--4m--4m--5m--5m--5m--5m-----------------|

G -6m--6m--6m--6m----------------------------------9-9-9-9-7-7-7-7-|
D -6m--6m--6m--6m--6m--6m--6m--6m--7m--7m--7m--7m--9-9-9-9-7-7-7-7-|
A -4m--4m--4m--4m--6m--6m--6m--6m--7m--7m--7m--7m--7-7-7-7-5-5-5-5-|
E -----------------4m--4m--4m--4m--5m--5m--5m--5m------------------|

Verse C
G -6-6-6-6-6-6-6-6---------------------------------9-9-9-9-7-7-7-7-|
D -6-6-6-6-6-6-6-6-6-6-6-6-6-6-6-6-7-7-7-7-7-7-7-7-9-9-9-9-7-7-7-7-|
A -4-4-4-4-4-4-4-4-6-6-6-6-6-6-6-6-7-7-7-7-7-7-7-7-7-7-7-7-5-5-5-5-|
E -----------------4-4-4-4-4-4-4-4-5-5-5-5-5-5-5-5-----------------|

Chorus A
D -4---4-------4-7---------7---7---2---2-------2-2----------------|
A -4---4-------4-7---------7---7---2---2-------2-2----------------|
E -2---2-------2-5---------5---5---0---0-------0-0---------3^-----|

D -4---4-------4-7---------7---7---2---2-------2-2-2m--2m--2m-----|
A -4---4-------4-7---------7---7---2---2-------2-2-2m--2m--2m-----|
E -2---2-------2-5---------5---5---0---0-------0-0-0m--0m--0m-----|

Chorus B
e -------------------------------------------------0--------------|
B -------------------------------------------------0--------------|
G ----------------------------------------------------------------|
D -4---4-------4-7---------7---7---2---2-------2-2----------------|
A -4---4-------4-7---------7---7---2---2-------2-2----------------|
E -2---2-------2-5---------5---5---0---0-------0-0---------3^-----|

D -4---4-------4-7---------7---7---2---2-------2-2-2m--2m--2m-----|
A -4---4-------4-7---------7---7---2---2-------2-2-2m--2m--2m-----|
E -2---2-------2-5---------5---5---0---0-------0-0-0m--0m--0m-----|

Solo!
G ------------------14--14--14--14--------------------------------|
D -16--16--16-14-16-----------------14--14--14-14--14--17--17-----|

G ------------------14--14--14--14--------------------------------|
D -16--16--16-14-16-----------------14--14--14-14--14---14--14----|

G ---------------14-14-14---14h16p14-------------------------------|
D -16-14-14---16---------------------16-14--14--16-14-14-17--17-17-|

G 14h16p14-----14h16p14-----14h16p14-----14h16p14-----14h16p14------|
D -------h16p14-------h16p14-------h16p14-------h16p14-------h16p14-|

B ---------------------------19^----------------------------------|
G -16---16-16-16-16^-16^-16^--------------------------------------|


13. Kill Miss America

Intro/Chorus:
e|--------------------------------------------------------------------|
B|--------------------------------------------------------------------|
G|---------6/7-7---------8/9-9--8/9-(9)-------------------------------|
D|--4/5-5--6/7-7--6/7-7--8/9-9--8/9-(9)-------------------------------|
A|--4/5-5--4/5-5--6/7-7--6/7-7--6/7-(7)-------------------------------|
E|--2/3-3---------4/5-5-----------------------------------------------|

Verse:
e|--------------------------------------------------------------------|
B|--------------------------------------------------------------------|
G|------------------7-7-7-7-7-----------------------------------------|
D|--7-7-7-7-7-7-7-7-7-7-7-7-7-9-9-9-9-9-------------------------------|
A|--7-7-7-7-7-7-7-7-5-5-5-5-5-9-9-9-9-9-------------------------------|
E|--5-5-5-5-5-5-5-5-----------7-7-7-7-7-------------------------------|

Pre Chorus:
e|--------------------------------------------------------------------|
B|--------------------------------------------------------------------|
G|--------------------------------------------------------------------|
D|--2-2-2-2-2-5-5-5-5-5-5-5--7-5-5--7-5-5--7-5-5--7-------------------|
A|--2-2-2-2-2-5-5-5-5-5-5-5--7-5-5--7-5-5--7-5-5--7-------------------|
E|--0-0-0-0-0-3-3-3-3-3-3-3--5-3-3--5-3-3--5-3-3--5-------------------|

e|--------------------------------------------------------------------|
B|--------------------------------------------------------------------|
G|--------------------------------------------------------------------|
D|--2-2-2-2-2-5-5-5-5-5-5-5--7-7-7-7-7-7-7-7-7------------------------|
A|--2-2-2-2-2-5-5-5-5-5-5-5--7-7-7-7-7-7-7-7-7------------------------|
E|--0-0-0-0-0-3-3-3-3-3-3-3--5-5-5-5-5-5-5-5-5------------------------|

Solo 1:
Gtr.1:
e|--15/17-15------------------------15/17-15-----------------------------------|
B|-----------18-18-16--18-18-16-18-----------18-18-16--18-18-16-18b-16-18------|
G|-----------------------------------------------------------------------------|
D|-----------------------------------------------------------------------------|
A|-----------------------------------------------------------------------------|
E|-----------------------------------------------------------------------------|

Gtr.2:
e|-----------------------------------------------------------------------------|
B|-----------------------------------------------------------------------------|
G|-----------------------------------------------------------------------------|
D|--7------------------2------------7------------------2-----------------------|
A|--7------------------2------------7------------------2-----------------------|
E|--5------------------0------------5------------------0-----------------------|

Gtr.1:
e|--17-17-17-17---------------17-17-17-17---------------------------------------------|
B|--18-18-18-18--18-18-18-18--18-18-18-18--18-18-18-18--16-18-18-18-16-16----16-------|
G|---------------15-15-15-15---------------15-15-15-15--------------------18----14b---|
D|------------------------------------------------------------------------------------|
A|------------------------------------------------------------------------------------|
E|------------------------------------------------------------------------------------|

Gtr.2:
e|------------------------------------------------------------------------------------|
B|------------------------------------------------------------------------------------|
G|------------------------------------------------------------------------------------|
D|--7------------2------------7------------2------------7-----------------------------|
A|--7------------2------------7------------2------------7-----------------------------|
E|--5------------0------------5------------0------------5-----------------------------|

Solo 2:
Gtr.1:
e|--------------------------------------------------------------------------------|
B|-------8h10-------8h10--8h10p8----8h10p8----8h10p8--------------------8b--------|
G|--9-9-------9--9-------------------------------------------------7-6b-----------|
D|-------------------------------10--------10-------(10)-7-----5-7----------------|
A|---------------------------------------------------------5-7--------------------|
E|--------------------------------------------------------------------------------|

Gtr.2
e|--------------------------------------------------------------------------------|
B|--------------------------------------------------------------------------------|
G|--------------------------------------------------------------------------------|
D|--7---------------------2--------------------------7----------------2-----------|
A|--7---------------------2--------------------------7----------------2-----------|
E|--5---------------------0--------------------------5----------------0-----------|

Gtr.1:
e|---------------------10-9-(8)-------------8-10-12-15-17/20\17-------------------|
B|-----8h10-------8h10-------------------10---------------------------------------|
G|--9-------9--9---------------------7h9------------------------------------------|
D|------------------------------10------------------------------------------------|
A|--------------------------------------------------------------------------------|
E|--------------------------------------------------------------------------------|

Gtr.2:
e|------------------------------------------------------------------------------|
B|------------------------------------------------------------------------------|
G|------------------------------------------------------------------------------|
D|--7------------------2-----------------7---------------2----------------------|
A|--7------------------2-----------------7---------------2----------------------|
E|--5------------------0-----------------5---------------0----------------------|

Interlude:
e|---------------------------------------------------------------|
B|---------------------------------------------------------------|
G|--4-4-4-4-4-4-4-4-4-4-4-4-4----7-7-7-7-7----9-9-9-9-9----------|
D|--4-4-4-4-4-4-4-4-4-4-4-4-4-5--7-7-7-7-7-7--9-9-9-9-9-5--------|
A|--2-2-2-2-2-2-2-2-2-2-2-2-2-5--5-5-5-5-5-7--7-7-7-7-7-5--------|
E|----------------------------3------------5------------3--------|

e|---------------------------------------------------------------|
B|---------------------------------------------------------------|
G|--4-4-4-4-4-4-4-4-4-4-4-4-4----7-7-7-7-7----9-9-9-9--7-7-------|
D|--4-4-4-4-4-4-4-4-4-4-4-4-4-5--7-7-7-7-7-7--9-9-9-9--7-7-------|
A|--2-2-2-2-2-2-2-2-2-2-2-2-2-5--5-5-5-5-5-7--7-7-7-7--5-5-------|
E|----------------------------3------------5---------------------|

e|-----------------------------------------------------------------------------------|
B|-----------------------------------------------------------------------------------|
G|--4-4-4-4-4-4-4-4-4-4-4-4-4----7-7-7-7-7----9-9-9-9-9-9-9-9--11-11-11-11-11-11-11--|
D|--4-4-4-4-4-4-4-4-4-4-4-4-4-5--7-7-7-7-7-7--9-9-9-9-9-9-9-9--11-11-11-11-11-11-11--|
A|--2-2-2-2-2-2-2-2-2-2-2-2-2-5--5-5-5-5-5-7--7-7-7-7-7-7-7-7--9--9--9--9--9--9--9---|
E|----------------------------3------------5-----------------------------------------|

Outro:
Gtr.1:
e|-----15h17-//---------------------------------------------------------------------|
B|--18--18---//--16-14-----16-14-----------------------------------17bp15-----------|
G|--15-------//--------14b-------14b-----14-17b-14-------------17b------------------|
D|------------------------------------17-----------17-14-14-17------------14-14-17--|
A|----------------------------------------------------------------------------------|
E|----------------------------------------------------------------------------------|

e|---------------17-17-17-17---------------17-17-17-17-------------------------------|
B|--18-18-18-18--18-18-18-18--18-18-18-18--18-18-18-18--18-18-18-18-18-18------------|
G|--15-15-15-15---------------15-15-15-15---------------15-15-15-15-15-15------------|
D|-----------------------------------------------------------------------------------|
A|-----------------------------------------------------------------------------------|
E|-----------------------------------------------------------------------------------|

14. B-Movie Scream Queen


Intro:

Gtr.1:

e|--------------------------------------------------------------------------------|
B|--6-7-6-6-4--4-4-6h7p6p4----6-7-6-6-4--4-4-6h7p6p4----6-7-6-6-4--4-4-6h7p6p4----|
G|-------------------------5-------------------------5-------------------------5--|
D|--------------------------------------------------------------------------------|
A|--------------------------------------------------------------------------------|
E|--------------------------------------------------------------------------------|

e|--------------------------------------------------------------------|
B|--------------------------------------------------------------------|
G|--3-3-3-3-3/5-------------------------------------------------------|
D|--------------6-----------------------------------------------------|
A|--------------------------------------------------------------------|
E|--------------------------------------------------------------------|

Gtr.1:

e|-------------------------------------------------------------------------------------------------------------|
B|--6-7-6-6-4--4-4-6h7p6p4----6-7-6-6-4--4-4-6h7p6p4----6-7-6-6-4--4-4-6h7p6p4---------------------------------|
G|-------------------------5-------------------------5-------------------------5--3-3-3-3-3/5------------------|
D|--------------------------------------------------------------------------------------------6----------------|
A|-------------------------------------------------------------------------------------------------------------|
E|-------------------------------------------------------------------------------------------------------------|

Gtr.2:

e|-------------------------------------------------------------------------------------------------------------|
B|-------------------------------------------------------------------------------------------------------------|
G|--8-8-8-8-8-8-8-8-8-8-8-8-8-8-8-8-8-8-8-8-8-8-8-8-8-8-8-8-8-8-8-8-8-8-8--3-3-3-5-----------13-13-13-13-13----|
D|--8-8-8-8-8-8-8-8-8-8-8-8-8-8-8-8-8-8-8-8-8-8-8-8-8-8-8-8-8-8-8-8-8-8-8--3-3-3-5-6-6-6-6-6-13-13-13-13-13----|
A|--6-6-6-6-6-6-6-6-6-6-6-6-6-6-6-6-6-6-6-6-6-6-6-6-6-6-6-6-6-6-6-6-6-6-6--1-1-1-3-6-6-6-6-6-10-10-10-10-10----|
E|---------------------------------------------------------------------------------4-4-4-4-4-------------------|

Verse:

e|---------------------------------------------------------|
B|---------------------------------------------------------|
G|--8-8-8-8-8-8-8-8-8-8-8-5-5-5-5-5-5-5-5-3-3-3-3-3-3-3-3--|
D|--8-8-8-8-8-8-8-8-8-8-8-5-5-5-5-5-5-5-5-3-3-3-3-3-3-3-3--|
A|--6-6-6-6-6-6-6-6-6-6-6-3-3-3-3-3-3-3-3-1-1-1-1-1-1-1-1--|
E|---------------------------------------------------------|

Pre-Chorus:
                  * * * * *                                           * * * * *
e|-------------------------------------------------------------------------------|
B|-------------------------------------------------------------------------------|
G|---------------------------8-8-8-8-8-8-8-8-------------------------------------|
D|--6-6--6-6--6-6-6-6-6-6-6--8-8-8-8-8-8-8-8--6-6--6-6--4-4--4-4--3-3-3-3-3-3-3--|
A|--6-6--6-6--6-6-6-6-6-6-6--6-6-6-6-6-6-6-6--6-6--6-6--4-4--4-4--3-3-3-3-3-3-3--|
E|--4-4--4-4--4-4-4-4-4-4-4-------------------4-4--4-4--2-2--2-2--1-1-1-1-1-1-1--|

Chorus:
                                                                     * * * * * *
e|--------------------------------------------------------------------------------|
B|--------------------------------------------------------------------------------|
G|--10-10-8--8-8-5--5-10-10-8--8-8-5--5-10-10-8--8-8-5--5-5--3-3-5----------------|
D|--10-10-8--8-8-5--5-10-10-8--8-8-5--5-10-10-8--8-8-5--5-5--3-3-5-6-6-6-6-6-6-6--|
A|--8--8--6--6-6-3--3-8--8--6--6-6-3--3-8--8--6--6-6-3--3-3--1-1-3-6-6-6-6-6-6-6--|
E|-----------------------------------------------------------------4-4-4-4-4-4-4--|

                                                                     * * * * * *
e|------------------------------------------------------------------------------------------------------|
B|------------------------------------------------------------------------------------------------------|
G|--10-10-8--8-8-5--5-10-10-8--8-8-5--5-10-10-8--8-8-5--5-5--3-3-5----------------13-13-13-13-13-13-13--|
D|--10-10-8--8-8-5--5-10-10-8--8-8-5--5-10-10-8--8-8-5--5-5--3-3-5-6-6-6-6-6-6-6--13-13-13-13-13-13-13--|
A|--8--8--6--6-6-3--3-8--8--6--6-6-3--3-8--8--6--6-6-3--3-3--1-1-3-6-6-6-6-6-6-6--11-11-11-11-11-11-11--|
E|-----------------------------------------------------------------4-4-4-4-4-4-4------------------------|


Solo:

Gtr.1:
e|-------------------------------6---8b---------------------------------6---8b--------------------8b------------|
B|--6-6-9-9-6-6-9-9-6-6-9-9--6-9---9----9--6-6-9-9-6-6-9-9-6-6-9-9--6-9---9----9--6-6-9-9-6-6-9-9-----9-6b--6---|
G|--------------------------------------------------------------------------------------------------------------|
D|--------------------------------------------------------------------------------------------------------------|
A|--------------------------------------------------------------------------------------------------------------|
E|--------------------------------------------------------------------------------------------------------------|

Gtr.2
e|-------------------------------------------------------------------------------------------|
B|-------------------------------------------------------------------------------------------|
G|--8-8-8-8-8-8-8-8-8-8-8-8/10-8--6-6-6-6-6-6-6-6-6/8-6-5-5-5-5-5-5--3-3-3-3-3-3-3-----------|
D|--8-8-8-8-8-8-8-8-8-8-8-8/10-8--6-6-6-6-6-6-6-6-6/8-6-5-5-5-5-5-5--3-3-3-3-3-3-3-3-3-3-(5)-|
A|--6-6-6-6-6-6-6-6-6-6-6-6/8--6--4-4-4-4-4-4-4-4-4/6-4-3-3-3-3-3-3--1-1-1-1-1-1-1-3-3-3-(5)-|
E|---------------------------------------------------------------------------------1-1-1-(3)-|

15. Motherfucker, I Don't Care

Intro: (play 2 times)

      / => slide

e-----------|----------|----------------------------------------------------|
B-----------|----------|----------------------------------------------------|
G--22-4/5---|-22-4/5---|-----------------------------|      e---------------|
D--22-4/5-2-|-22-4/5-2-|-4-2-4-2-4-2-4-2-4-2-4-4-4---|      B---------------|
A--00-2/3-2-|-00-2/3-2-|-4-2-4-2-4-2-4-2-4-2-4-4-4---|      G---------------|
E---------0-|--------0-|-2-0-2-0-2-0-2-0-2-0-2-2-2---|      D-4-4-4-4-...---|
                         ^                                  A-4-4-4-4-...---|
                         |_ instead of this part u can play E-2-0-2-0-...---|


Verse:

     > => let ring
Guitar 1

e--0>>>-----2>>>-----2>>>------------------------|
B------------------------------------------------|
G------------------------------------------------|
D--2>>>-----4>>>-----2>>>---4--2-4--2-4--2-4>>---|
A--2>>>-----4>>>-----2>>>---4--2-4--2-4--2-4>>---|
E--0>>>-----2>>>-----0>>>---2--0-2--0-2--0-2>>---|

Guitar 2

e------------------------------------------------|
B------------------------------------------------|
G--9>>>-----11>>-----9>>>--11--9-11--9-11--9-11--|
D--9>>>-----11>>-----9>>>--11--9-11--9-11--9-11--|
A--7>>>-----9>>>-----7>>>---9--7--9--7--9--7-9---|
E------------------------------------------------|

Chorus: (the same chords as the intro)

The "Mother...***er....I don't care...." part:

e---------------------------|
B---------------------------|
G-------------------2>>>----|
D--4-4---4-4---4-4--2>>>----|
A--4-4---4-4---4-4--0>>>----|
E--2-2---2-2---2-2----------|

16. Crash Crash

Bass only intro, then:

e|-----------------------------------------|
B|-----------------------------------------|
G|-----------------------------------------|
D|-2-2---5---2-2---5-----8-8-7-7-5-5-5-----|
A|-2-2---5---2-2---5-----8-8-7-7-5-5-5-----|
E|-0-0---3---0-0---3-----6-6-5-5-3-3-3-----|


Faster bit played instead of riff above the fourth time.
If you want you can use single notes instead of power chords.

e|-----------------------------|
B|-----------------------------|
G|-----------------------------|
D|-2-2-5-2--8-7-5-2------------|
A|-2-2-5-2--8-7-5-2------------|
E|-0-0-3-0--6-5-3-0------------|

Verse is the same as first riff, but third chord stopped from ringing.
Pre-chorus:

e|-------------------------------------------|
B|-------------------------------------------|
G|-7-7-7-7-7-7-7-7-10-10-10-10-13-13-13-13---|
D|-7-7-7-7-7-7-7-7-10-10-10-10-13-13-13-13---|
A|-5-5-5-5-5-5-5-5--8--8--8--8-11-11-11-11---|
E|-------------------------------------------|

Chorus:

e|-----------------------|
B|-----------------------|
G|-----------------------|
D|-2-2-5-6----5-5-6-7----|
A|-2-2-5-6----5-5-6-7----|
E|-0-0-3-4----3-3-4-5----|

Played instead of last chords of chorus on fourth time:

e|-----------------------------|
B|-----------------------------|
G|----9-9-9-9-9-9-9-9-9-9-9-9--|
D|-7--9-9-9-9-9-9-9-9-9-9-9-9--|
A|-7--7-7-7-7-7-7-7-7-7-7-7-7--|
E|-5---------------------------|

Played under solo:

e|-----------------------------------------|
B|-----------------------------------------|
G|-----------------------------------------|
D|-2-2---5---2-2---5-----8-8-7-7-5-5-5-----|
A|-2-2---5---2-2---5-----8-8-7-7-5-5-5-----|
E|-0-0---3---0-0---3-----6-6-5-5-3-3-3-----|

After four times, it changes to this:

e|-----------------------------------------|
B|-----------------------------------------|
G|-2-2---5---2-2---5-----8-8-7-7-5-5-5-----|
D|-2-2---5---2-2---5-----8-8-7-7-5-5-5-----|
A|-0-0---3---0-0---3-----6-6-5-5-3-3-3-----|
E|-----------------------------------------|

Then back to:

e|-----------------------------------------|
B|-----------------------------------------|
G|-----------------------------------------|
D|-2-2---5---2-2---5-----8-8-7-7-5-5-5-----|
A|-2-2---5---2-2---5-----8-8-7-7-5-5-5-----|
E|-0-0---3---0-0---3-----6-6-5-5-3-3-3-----|

17. Let's Fuck

e|----------------------------------------------|
B|----------------------------------------------|
G|----------------------------------------------|
D|----------------------------------------------|
A|----------------------------------------------|
E|----11\10-10/13\12\11\10--10/13\12\11\10------|


                   (main tune)
e|----------------------------------------------|
B|----------------------------------------------|
G|----------------------------------------------|
D|----------------------------------------------|
A|--11\10-10/13\12\11\10--10/13\12\11\10--------|
E|--11\10-10/13\12\11\10--10/13\12\11\10--------|

                    (chorus)
e|---------------------------------------------------|
B|---------------------------------------------------|
G|---------------------------------------------------|
D|---7777/8888\7777/8888\7777/8888\7777/8888\66\44---|
A|---7777/8888\7777/8888\7777/8888\7777/8888\66\44---|
E|---7777/8888\7777/8888\7777/8888\7777/8888\66\44---|

18. I Take Drugs

Intro:

|-----------------------|      Let Em ring the last time
|-----------------------|
|-----------------5555--|
|--2222-5555-7777-5555--|
|--2222-5555-7777-3333--|
|--0000-3333-5555-------|


   1 2  3 4  1 2  3 4

Verse/Chorus:

|-----------------------|
|-----------------------|
|-----------------5555--|
|--2222-5555-7777-5555--|
|--2222-5555-7777-3333--|
|--0000-3333-5555-------|

   1 2  3 4  1 2  3 4

19. White Wedding

Intro:
e|---------------------------------|
B|---------------------------------|
G|---------------------------------|
D|--4b-4---3b--0---4b-4---3b---0---|
A|--2b-2---0---2b--2b-2---0----2b--|
E|---------------------------------|
 keep playing, then

 Intro lead:
e|-------------------------------------------------------------------|
B|------------------------------------------------------13~~~12~~~---|
G|--14-10-7---7-10-14-10-12~~~10~~~14-10-7---7-10-14-10--------------|
D|----------7------------------------------7-------------------------|
A|-------------------------------------------------------------------|
E|-------------------------------------------------------------------|
then play intro a few more times

Then Play this though the rest of the song
e|---------------------------------------------------|
B|---------------------------------------------------|
G|---------------------------------------------------|
D|--3-3-3-3-3-3-0-0-0-0-0-0-4-4-4-4-4-4-4-4-4-4-4-4--|
A|--0-0-0-0-0-0-2-2-2-2-2-2-4-4-4-4-4-4-4-4-4-4-4-4--|
E|--0-0-0-0-0-0-0-0-0-0-0-0-2-2-2-2-2-2-2-2-2-2-2-2--|

e|---------------------------------------------------|
B|---------------------------------------------------|
G|---------------------------------------------------|
D|--3-3-3-3-3-3-0-0-0-0-0-0-4-4-4-4-4-4-4-4-4-4-4-4--|
A|--0-0-0-0-0-0-2-2-2-2-2-2-4-4-4-4-4-4-4-4-4-4-4-4--|
E|--0-0-0-0-0-0-0-0-0-0-0-0-2-2-2-2-2-2-2-2-2-2-2-2--|


 Solo:
e|---------------------------------------------------------------|
B|------------------------------------------------------13~~~12~~|
G|--14-10-7---7-10-14-10-12~~~10~~~14-10-7---7-10-14-10----------|
D|----------7------------------------------7---------------------|
A|---------------------------------------------------------------|
E|---------------------------------------------------------------|

e|--------------------------------------------------------------------------|
B|-----------------------------------------------------------------13~~~12~~|
G|--14-10-7---7-10-14-10-14-10-7---7-10-14-10-14-10-7---7-10-14-10----------|
D|----------7--------------------7--------------------7---------------------|
A|--------------------------------------------------------------------------|
E|--------------------------------------------------------------------------|


 Closing Riff:
e|---------------------------------------------------------------|
B|---------------------------------------------------------------|
G|---------------------------------------------------------------|
D|--------------4-4-------------4-4-----------4-4-----------4-4--|
A|--------------4-4-------------4-4-----------4-4-----------4-4--|
E|--2-2-2-2-2-2-2-2-2-2-2-2-2-2-2-2-2-2-2-2-2-2-2-2-2-2-2-2-2-2--|

20. Welcome To The Strange

Intro with an envolope filter sound/effect

E}-------------------------------------------------|
B}-------------------------------------------------|
G}-------------------------------------------------|
D}-------------------------------------------------|
A}-------------------------------------------------|
E}-0-0-0-0-0-0-0-0-0-0-0-0-2-2-5-5-4-4-4-4-4-4-4-4-|

then w/distortion

E}-------------------------------------------------|
B}-------------------------------------------------|
G}-------------------------------------------------|
D}-2-2-2-2-2-2-2-2-2-2-2-2-4-4-7-7-6-6-6-6-6-6-6-6-|
A}-2-2-2-2-2-2-2-2-2-2-2-2-4-4-7-7-6-6-6-6-6-6-6-6-|
E}-0-0-0-0-0-0-0-0-0-0-0-0-2-2-5-5-4-4-4-4-4-4-4-4-|

THEN
Pick scrape>>>>>>>>>>>>>>>>>>>>>>>>>>>>>>>>>>>>>

Riff b x2
Heavey distortion
E}---------------------------------------|
B}---------------------------------------|
G}---------------------------------------|
D}-2-2--2-2-2-2---2-4-4-7-7-6-6--6-6-6-6-|
A}-2-2--2-2-2-2---2-4-4-7-7-6-6--6-6-6-6-|
E}-0-0--0-0-0-0---0-2-2-5-5-4-4--4-4-4-4-|

Riff c
Heavey distortion
E}----------------------------------|
B}----------------------------------|
G}----------------------------------|
D}-7-7--7-7-7-4--4-4--4-4-4-4--2----|
A}-7-7--7-7-7-4--4-4--4-4-4-4--2----|
E}-5-5--5-5-5-2--2-2--2-2-2-2--0----|

Wait

Verse X4
Quieter heavey distortion
E}-------------------------------------------------|
B}-------------------------------------------------|
G}-------------------------------------------------|
D}-2-2-2-2-2-2-2-2-2-2-2-2-4-4-7-7-6-6-6-6-6-6-6-6-|
A}-2-2-2-2-2-2-2-2-2-2-2-2-4-4-7-7-6-6-6-6-6-6-6-6-|
E}-0-0-0-0-0-0-0-0-0-0-0-0-2-2-5-5-4-4-4-4-4-4-4-4-|

Chorus X2
Heavey distortion
E}-----------------------------------------------------|
B}-----------------------------------------------------|
G}---------------------------------2-2-----2-2-----2-2-|
D}-7-7--7-7-7-4--4-4--4-4-4-4--2-2-2-2-2-2-2-2-2-2-0-0-|
A}-7-7--7-7-7-4--4-4--4-4-4-4--2-2-0-0-2-2-0-0-2-2-0-0-|
E}-5-5--5-5-5-2--2-2--2-2-2-2--0-0-----0-0-----0-0-----|

Verse X2
Quieter heavey distortion
E}-------------------------------------------------|
B}-------------------------------------------------|
G}-------------------------------------------------|
D}-2-2-2-2-2-2-2-2-2-2-2-2-4-4-7-7-6-6-6-6-6-6-6-6-|
A}-2-2-2-2-2-2-2-2-2-2-2-2-4-4-7-7-6-6-6-6-6-6-6-6-|
E}-0-0-0-0-0-0-0-0-0-0-0-0-2-2-5-5-4-4-4-4-4-4-4-4-|

Chorus X2
Heavey distortion
E}-----------------------------------------------------|
B}-----------------------------------------------------|
G}---------------------------------2-2-----2-2-----2-2-|
D}-7-7--7-7-7-4--4-4--4-4-4-4--2-2-2-2-2-2-2-2-2-2-0-0-|
A}-7-7--7-7-7-4--4-4--4-4-4-4--2-2-0-0-2-2-0-0-2-2-0-0-|
E}-5-5--5-5-5-2--2-2--2-2-2-2--0-0-----0-0-----0-0-----|

Then post chorus
heavey distortion
E}---------------------------------------------|
B}---------------------------------------------|
G}---------------------------------------------|
D}-7-7-7-7-7-7-7-7-7-7-6-6-6-6-4-4-4-4-4-4-4-4-|
A}-7-7-7-7-7-7-7-7-7-7-6-6-6-6-4-4-4-4-4-4-4-4-|
E}-5-5-5-5-5-5-5-5-5-5-4-4-4-4-2-2-2-2-2-2-2-2-|

stop

E}---------------------------------|
B}---------------------------------|
G}-----2-2-----2-2-----2-2-----2-2-|
D}-2-2-2-2-2-2-2-2-2-2-0-0-2-2-2-2-|
A}-2-2-0-0-2-2-0-0-2-2-0-0-2-2-0-0-|
E}-0-0-----0-0-----0-0-----0-0-----|

E}---------------------------------|
B}---------------------------------|
G}-----2-2-----2-2-----2-2-----2-2-|
D}-2-2-2-2-2-2-2-2-2-2-0-0-2-2-2-2-|
A}-2-2-0-0-2-2-0-0-2-2-0-0-2-2-0-0-|
E}-0-0-----0-0-----0-0-----0-0-----|

Solo X2
E}---------------------|
B}-9-7-9-7-9-7-9-10-12-|
G}---------------------|
D}---------------------|
A}---------------------|
E}---------------------|

E}---------------------|
B}-9-7-9-7-9-7-9-10-10-|
G}---------------------|
D}---------------------|
A}---------------------|
E}---------------------|

Chorus X2
Heavey distortion
E}-----------------------------------------------------|
B}-----------------------------------------------------|
G}---------------------------------2-2-----2-2-----2-2-|
D}-7-7--7-7-7-4--4-4--4-4-4-4--2-2-2-2-2-2-2-2-2-2-0-0-|
A}-7-7--7-7-7-4--4-4--4-4-4-4--2-2-0-0-2-2-0-0-2-2-0-0-|
E}-5-5--5-5-5-2--2-2--2-2-2-2--0-0-----0-0-----0-0-----|

Bass X2

Chorus X2
Heavey distortion
E}-----------------------------------------------------|
B}-----------------------------------------------------|
G}---------------------------------2-2-----2-2-----2-2-|
D}-7-7--7-7-7-4--4-4--4-4-4-4--2-2-2-2-2-2-2-2-2-2-0-0-|
A}-7-7--7-7-7-4--4-4--4-4-4-4--2-2-0-0-2-2-0-0-2-2-0-0-|
E}-5-5--5-5-5-2--2-2--2-2-2-2--0-0-----0-0-----0-0-----|

Then post chorus
heavey distortion
E}---------------------------------------------|
B}---------------------------------------------|
G}---------------------------------------------|
D}-7-7-7-7-7-7-7-7-7-7-6-6-6-6-4-4-4-4-4-4-4-4-|
A}-7-7-7-7-7-7-7-7-7-7-6-6-6-6-4-4-4-4-4-4-4-4-|
E}-5-5-5-5-5-5-5-5-5-5-4-4-4-4-2-2-2-2-2-2-2-2-|

stop

E}---------------------------------|
B}---------------------------------|
G}-----2-2-----2-2-----2-2-----2-2-|
D}-2-2-2-2-2-2-2-2-2-2-0-0-2-2-2-2-|
A}-2-2-0-0-2-2-0-0-2-2-0-0-2-2-0-0-|
E}-0-0-----0-0-----0-0-----0-0-----|

E}---------------------------------|
B}---------------------------------|
G}-----2-2-----2-2-----2-2-----2-2-|
D}-2-2-2-2-2-2-2-2-2-2-0-0-2-2-2-2-|
A}-2-2-0-0-2-2-0-0-2-2-0-0-2-2-0-0-|
E}-0-0-----0-0-----0-0-----0-0-----|

Solo 2
Casually bending 12 untill end
E}-12-12-12-12-|
B}-------------|
G}-------------|
D}-------------|
A}-------------|
E}-------------|

Under solo 2 Verse X6
Quieter heavey distortion
E}-------------------------------------------------|
B}-------------------------------------------------|
G}-------------------------------------------------|
D}-2-2-2-2-2-2-2-2-2-2-2-2-4-4-7-7-6-6-6-6-6-6-6-6-|
A}-2-2-2-2-2-2-2-2-2-2-2-2-4-4-7-7-6-6-6-6-6-6-6-6-|
E}-0-0-0-0-0-0-0-0-0-0-0-0-2-2-5-5-4-4-4-4-4-4-4-4-|

21. I Love To Say Fuck

Intro:

e|-----------|
B|-----------|
G|-----------|
D|-9-9-9-9-9-| x1
A|-9-9-9-9-9-|
E|-7-7-7-7-7-|


Main Riff/ Verse:

e|---------------------------------|
B|---------------------------------|
G|---------------------------------|
D|-2-2-2-2-5-5-5-5-2-2-------------|
A|-2-2-2-2-5-5-5-5-2-2-------------| x13 (theres a couple of pick slides in
E|-0-0-0-0-3-3-3-3-0-0-3-3-3-3-3-3-|      there at the intro too)
                      |<---------->|
                     Natural Harmonics


Pre-chorus riff:

e|---------------------------------|
B|---------------------------------|
G|---------------------------------|
D|-2-2-2-2-5-5-5-5-2-2-4-4-5-5-6-6-|
A|-2-2-2-2-5-5-5-5-2-2-4-4-5-5-6-6-| x1
E|-0-0-0-0-3-3-3-3-0-0-2-2-3-3-4-4-|


Chorus:

Guitar 1:

e|---------------------------------|
B|---------------------------------|
G|---------------------------------|
D|-7~~-----------------------------|
A|-7~~-----------------------------|
E|-5~~-----------------------------|

Guitar 2:

e|---------------------------------|
B|---------------------------------|
G|---------------------------------|
D|-7~~~~~--------------------------|
A|---------------------------------|
E|---------------------------------|


Guitar 1:

e|---------------------------------|
B|---------------------------------|
G|---------------------------------|
D|-2~~-----------------------------|
A|-2~~-----------------------------|
E|-0~~-----------------------------|

Guitar 2:

e|---------------------------------|
B|---------------------------------|
G|---------------------------------|
D|-2~~~~~--------------------------|
A|---------------------------------|
E|---------------------------------|


Guitar 1:

e|---------------------------------|
B|---------------------------------|
G|---------------------------------|
D|-7~~-----------------------------|
A|-7~~-----------------------------|
E|-5~~-----------------------------|

Guitar 2:

e|---------------------------------|
B|---------------------------------|
G|---------------------------------|
D|-7~~~~~--------------------------|
A|---------------------------------|
E|---------------------------------|


Guitar 1:

e|---------------------------------|
B|---------------------------------|
G|---------------------------------|
D|-9~~-----------------------------|
A|-9~~-----------------------------|
E|-7~~-----------------------------|

Guitar 2:

e|---------------------------------|
B|---------------------------------|
G|---------------------------------|
D|-9~~~~~--------------------------|
A|---------------------------------|
E|---------------------------------|

Then:

Main Riff/Verse x13

Pre-Chorus Riff x1

Chorus

Main Riff/Verse x4

Solo:  (other guitar plays Main Riff/Verse behind solo)

e|--------------------------------------------------------------|
B|--------------------------------------------------------------|
G|-14b16-16-14b16-16-14-16-14b16(gradual)-16-16-16-16r14-12-----|
D|----------------------------------------------------------14~-| x2
A|--------------------------------------------------------------|
E|--------------------------------------------------------------|

e|--------------------------------------------------------------|
B|-------------------12----12----12-12-12-12-12-12--------------|
G|-14b16(gradual)-14b16-14b16-14b16-16-16-16-16-16-16-16-16r14--|
D|--------------------------------------------------------------|
A|--------------------------------------------------------------|
E|--------------------------------------------------------------|

Bass only, then:

e|------------------------------------|
B|------------------------------------|
G|------------------------------------|
D|------------------------------------|
A|------------------------------------| x9
E|-0-0-0-0-3-3-3-3-0-0----------------|
 |<-----------------------------------|
       Palm Mute

Then:

Pre-Chorus Riff x1

Chorus

Main Riff/Verse x4


Finally,:

Guitar 1:			Guitar 2:

e|-----------------|        e|-----------------------|
B|-----------------|        B|-----------------------|
G|-----------------|        G|-14b16(picked rapid)---|
D|-2-2-2-2-5-7-7-5-| x25    D|-----------------------|
A|-2-2-2-2-5-7-7-5-|        A|-----------------------|
E|-0-0-0-0-3-5-5-3-|        E|-----------------------|


Both guitars:

e|--------------|
B|--------------|
G|--------------|
D|-2~~~---------|
A|-2~~~---------|
E|-0~~~---------|


End with Intro x1

*Bonus Tracks*

The Devil Made Me Do It (Live Song)

Main Riff
E|---------------------------------------------------||
B|---------------------------------------------------||
G|---------------------------------------------------||
D|-555-7-5--10b(11)10-8-10-8--222-5-2--7b(8)7-5-7-5--||x2
A|-555-7-5--------------------222-5-2----------------||
E|-333-5-3--------------------000-3-0----------------||

Verse
E|-------------------||
B|-------------------||
G|-------------------||
D|-555-7-5---222-5-2-||x2
A|-555-7-5---222-5-2-||
E|-333-5-3---000-3-0-||
   *** * *   *** * *

E|------------------------------------||
B|------------------------------------||
G|------------------------------------||
D|-555-7-5-----------222-5-2----------||x2
A|-555-7-5-let ring--222-5-2-let ring-||
E|-333-5-3-----------000-3-0----------||

Chorus
E|-------------------------------------||
B|-------------------------------------||
G|-------------------------------------||
D|-2--------2--------2--------2--------||
A|-2--------2--------2--------2--------||
E|-0--------0--------0--------0--------||

Main Riff
E|---------------------------------------------------||
B|---------------------------------------------------||
G|---------------------------------------------------||
D|-555-7-5--10b(11)10-8-10-8--222-5-2--7b(8)7-5-7-5--||x2
A|-555-7-5--------------------222-5-2----------------||
E|-333-5-3--------------------000-3-0----------------||

Verse
E|-------------------||
B|-------------------||
G|-------------------||
D|-555-7-5---222-5-2-||x2
A|-555-7-5---222-5-2-||
E|-333-5-3---000-3-0-||
   *** * *   *** * *

E|------------------------------------||
B|------------------------------------||
G|------------------------------------||
D|-555-7-5-----------222-5-2----------||x2
A|-555-7-5-let ring--222-5-2-let ring-||
E|-333-5-3-----------000-3-0----------||

Chorus
E|-------------------------------------||
B|-------------------------------------||
G|-------------------------------------||
D|-2--------2--------2--------2--------||
A|-2--------2--------2--------2--------||
E|-0--------0--------0--------0--------||

Interlude
E|---------------------------------------------------------------------||
B|---------------------------------------------7-7h10p7-------7--------||
G|----------12b(13)12-10-12-10-----------9b(10)---------9b(10)--9b(10)-||
D|-555-7-5----------------------222-5-2--------------------------------||
A|-555-7-5----------------------222-5-2--------------------------------||
E|-333-5-3----------------------000-3-0--------------------------------||

E|---------|---------|---|---------|--------|--||
B|---------|-10------|---|---------|-10-----|--||
G|---------|-12b(14)-|x4-|---------|-9b(11)-|x4||
D|-555-7-5-|---------|---|-222-5-2-|--------|--||
A|-555-7-5-|---------|---|-222-5-2-|--------|--||
E|-333-5-3-|---------|---|-000-3-0-|--------|--||

Verse
E|-------------------||
B|-------------------||
G|-------------------||
D|-555-7-5---222-5-2-||x2
A|-555-7-5---222-5-2-||
E|-333-5-3---000-3-0-||
   *** * *   *** * *

E|------------------------------------||
B|------------------------------------||
G|------------------------------------||
D|-555-7-5-----------222-5-2----------||x2
A|-555-7-5-let ring--222-5-2-let ring-||
E|-333-5-3-----------000-3-0----------||

Chorus
E|--------------------------------------||
B|--------------------------------------||
G|--------------------------------------||
D|-2--------2--------2--------2----2----||
A|-2--------2--------2--------2----2----||
E|-0--------0--------0--------0----0----||

Mr. Motherfucker (Live Song)

e------------------------------------|
b------------------------------------|
g------------------------------------|		x8
d-5--5--5--5--5--5-5---x-------------|
a-5--5--5--5--5--5-5---x-------------|
E-3--3--3--3--3--3-3---x-------------|

e-8~~~~------------------------------|
b------------------------------------|
g------------------------------------|
d------------------------------------|
a------------------------------------|
E------------------------------------|

e--------------------------------8~--|
b------------------------------------|
g------------------------------------|
d------------------------------------|
a------------------------------------|
E------------------------------------|


e------------------------------------|
b-8~-8~-8~-8~-6~-8~-8~---------------|
g------------------------------------|
d------------------------------------|
a------------------------------------|
E------------------------------------|

e------------------------------------|
b-8~-8~-8~-8~-6~-8~-8~---------------|
g------------------------------------|
d------------------------------------|
a------------------------------------|
E------------------------------------|

e---8~~~~----------------------------|
b------------------------------------|
g------------------------------------|
d------------------------------------|
a------------------------------------|
E------------------------------------|

e--------------8~-----8~-------------|
b------------------------------------|
g------------------------------------|
d------------------------------------|
a------------------------------------|
E------------------------------------|

e-10~~-------------------------------|
b------------------------------------|
g------------------------------------|
d------------------------------------|
a------------------------------------|
E------------------------------------|

e------------------------------------|
b------------------------------------|
g------------------------------------|
d-5--5--5--5--3--5--x----------------|		X8
a-5--5--5--5--3--5--x----------------|
E-3--3--3--3--1--3--x----------------|

e------------------------------------|
b------------------------------------|
g------------------------------------|		x8
d-5--5--5--5--5--5-5---x-------------|
a-5--5--5--5--5--5-5---x-------------|
E-3--3--3--3--3--3-3---x-------------|


e-8~~~~------------------------------|
b------------------------------------|
g------------------------------------|
d------------------------------------|
a------------------------------------|
E------------------------------------|


e---8~~~~----------------------------|
b------------------------------------|
g------------------------------------|
d------------------------------------|
a------------------------------------|
E------------------------------------|

e------------------------------------|
b-8~-8~-8~-8~-6~-8~-8~---------------|
g------------------------------------|
d------------------------------------|
a------------------------------------|
E------------------------------------|

e------------------------------------|
b-8~-8~-8~-8~-6~-8~-8~---------------|
g------------------------------------|
d------------------------------------|
a------------------------------------|
E------------------------------------|

e---8~~~~----------------------------|
b------------------------------------|
g------------------------------------|
d------------------------------------|
a------------------------------------|
E------------------------------------|

e--------------8~-----8~-------------|
b------------------------------------|
g------------------------------------|
d------------------------------------|
a------------------------------------|
E------------------------------------|

e-10~~-------------------------------|
b------------------------------------|
g------------------------------------|
d------------------------------------|
a------------------------------------|
E------------------------------------|

e------------------------------------|
b------------------------------------|
g------------------------------------|
d-5--5--5--5--3--5--x----------------|		X8
a-5--5--5--5--3--5--x----------------|
E-3--3--3--3--1--3--x----------------|


e------------------------------------|
b-8~-8~-8~-8~-6~-8~-8~---------------|
g------------------------------------|
d------------------------------------|
a------------------------------------|
E------------------------------------|

e-------------6~---------------------|
b-8~-8~-8~-8~----8~-8~---------------|
g------------------------------------|
d------------------------------------|
a------------------------------------|
E------------------------------------|


e------------------------------------|
b-8~-8~-8~-8~-6~-8~-8~---------------|
g------------------------------------|
d------------------------------------|
a------------------------------------|
E------------------------------------|


e-------------6~---------------------|
b-8~-8~-8~-8~----8~-8~---------------|
g------------------------------------|
d------------------------------------|
a------------------------------------|
E------------------------------------|

e------------------------------------|
b-8~-8~-8~-8~-6~-8~-8~---------------|
g------------------------------------|
d------------------------------------|
a------------------------------------|
E------------------------------------|


e-------------6~---------------------|
b-8~-8~-8~-8~----8~-8~---------------|
g------------------------------------|
d------------------------------------|
a------------------------------------|
E------------------------------------|

e------------------------------------|
b-8~-8~-8~-8~-6~-8~-8~---------------|
g------------------------------------|
d------------------------------------|
a------------------------------------|
E------------------------------------|

e-------------6~---------------------|
b-8~-8~-8~-8~----8~-8~---------------|
g------------------------------------|
d------------------------------------|
a------------------------------------|
E------------------------------------|

e-8~~~~------------------------------|
b------------------------------------|
g------------------------------------|
d------------------------------------|
a------------------------------------|
E------------------------------------|

e---8~~~~----------------------------|
b------------------------------------|
g------------------------------------|
d------------------------------------|
a------------------------------------|
E------------------------------------|

e------------------------------------|
b-8~-8~-8~-8~-6~-8~-8~---------------|
g------------------------------------|
d------------------------------------|
a------------------------------------|
E------------------------------------|

e------------------------------------|
b-8~-8~-8~-8~-6~-8~-8~---------------|
g------------------------------------|
d------------------------------------|
a------------------------------------|
E------------------------------------|

e-8~~~~------------------------------|
b------------------------------------|
g------------------------------------|
d------------------------------------|
a------------------------------------|
E------------------------------------|

e--------------8~-----8~-------------|
b------------------------------------|
g------------------------------------|
d------------------------------------|
a------------------------------------|
E------------------------------------|

e-10~~-------------------------------|
b------------------------------------|
g------------------------------------|
d------------------------------------|
a------------------------------------|
E------------------------------------|

e------------------------------------|
b------------------------------------|
g------------------------------------|
d-5--5--5--5--3--5--x----------------|		X4
a-5--5--5--5--3--5--x----------------|
E-3--3--3--3--1--3--x----------------|

e------------------------------------|
b-8~-8~-8~-8~-6~-8~-8~---------------|		X4
g------------------------------------|
d------------------------------------|
a------------------------------------|
E------------------------------------|
comments
print report bad tab
1 comment total.
0 reply
metallica72487 wrote on January 29 2008, 03:05 am

looks good good job

I want to post or [tab]
guest
You may want to rate the tab now too:
select rating
Please do not post tabs as comments. Select "correction" instead!