Oops, an error
Loading. Please wait.

Drug Me To Hell Tab

4,106 views 1 this week
2 commentsread comments
1 2 3 4 5
excellent!
x 2
Autoscroll
+/-
esc
set tempo
stop
Contributor
Difficulty
intermediate
Hey! There's an official Ultimate Guitar app which is ideal
for learning songs when you're away from computer. Get the app
WARNING: You are trying to view
                                    content from Ultimate-Guitar.com
                                    in an unauthorized application,
                                    which is prohibited.

                                    Please use an official Ultimate
                                    Guitar Tabs application for iPhone,
                                    iPad or Android to access legitimate
                                    chords, guitar, bass, and drum tabs
                                    from Ultimate-Guitar.com database.

                                    Type "ultimate guitar tabs" in Apple
                                    App Store's or Android Market's
                                    search to find the application.
-------------------------------------------------------------------------------
                             DRUG ME TO HELL - Murderdolls
-------------------------------------------------------------------------------
Tabbed by: ironmanben@gmail.com
Email: ironmanben@gmail.com

Tuning: d A F C G C 

guitar 1 - Joey Jordison - rhythm 
guitar 2 - Wednesday 13 - rhythm
guitar 3 - Roman Surman - lead - (This guitar is not very loud in the song.)
guitar 4 - Mick Mars - solo


intro:
d|-----------------------------------|
A|-----------------------------------|
F|-----------------------------------|
C|-5-5-5-5-5-5-5-5-5-5-5-3-5-3-5-0-0-|   <--- guitars 1 & 2
G|-5-5-5-5-5-5-5-5-5-5-5-3-5-3-5-0-0-|
C|-5-5-5-5-5-5-5-5-5-5-5-3-5-3-5-0-0-|    
-| x x x x x x x x x             x x |
d|-----------------------------------|
A|-----------------------------------|
F|-121212121212121212121210121012----|
C|-------------------------------1212|   <--- guitar 3
G|-----------------------------------|
C|-----------------------------------|


main riff:
d|---------------------------------------------------------------|
A|---------------------------------------------------------------|
F|---------------------------------------------------------------|< guitars
C|-0-3-0-3-0-0-0-3-0-3-0-0-0-0-0-0-0-3-0-3-0-0-0-5---5-7---7-7-7-|  1 & 2
G|-0-3-0-3-0-0-0-3-0-3-0-0-0-0-0-0-0-3-0-3-0-0-0-3-0-3-5---5-5-5-|
C|-0-3-0-3-0-0-0-3-0-3-0-0-0-0-0-0-0-3-0-3-0-0-0-----------------|
-| x         x x         x x x x x x         x x                 |
d|---------------------------------------------------------------|
A|-----------------------------------------------13-13/15--------|
F|---10--10------10--10--------------10--10----------------------|<guitar 3
C|-12--12--121212--12--12121212121212--12--121212---------121212-|
G|---------------------------------------------------------------|
C|---------------------------------------------------------------|



pre-chorus:
 | x3                              | x1                                |
d|---------------------------------|-----------------------------------|
A|---------------------------------|-----------------------------------|
F|---------------------------------|-----------------------------------|gtrs
C|-0-6-6-6-6-6-6-6-6-5-3-0-0-0-0-0-|-3-3-3-3-3-3-3-3-3-5-5-0-5-0-5-0-0-|1 &
G|-0-6-6-6-6-6-6-6-6-5-3-0-0-0-0-0-|-3-3-3-3-3-3-3-3-3-5-5-0-5-0-5-0-0-| 2
C|-0-6-6-6-6-6-6-6-6-5-3-0-0-0-0-0-|-3-3-3-3-3-3-3-3-3-5-5-0-5-0-5-0-0-|
-| x                       x x x x |                               x x |
d|---------------------------------|-----------------------------------|
A|---------------------------------|-----------------------------------|
F|--1313131313131313-12-10---------|-1010101010101010101212--12--12----|gtr 
C|------------------------12-------|-----------------------12--12------| 3
G|---------------------------------|-----------------------------------|
C|---------------------------------|-----------------------------------|


Guitar Solo:
d|-----------------------------------------------------------------|
A|-----------------------------------------------------------------|
F|-----------------------------------------------------------------|
C|-0-0---0-0---0-0---0-0---0-0-----0-0---0-0---0-0---0-0---0-0-----|< gtrs 1
G|-0-0-5-0-0-5-0-0-5-0-0-5-0-0-5-5-0-0-5-0-0-5-0-0-5-0-0-5-0-0-5-5-|  & 2
C|-0-0-0-0-0-0-0-0-0-0-0-0-0-0-0-0-0-0-0-0-0-0-0-0-0-0-0-0-0-0-0-0-|
-| x x   x x   x x   x x   x x     x x   x x   x x   x x   x x     |
d|-----------------------------------------------------------------|
A|-----10----9------------------------10----9----------------------|
F|-1212--1212-121210101012121210121212--1212-12121010101212121012--| < gtr 3
C|-----------------------------------------------------------------|
G|-----------------------------------------------------------------|
C|-----------------------------------------------------------------|
-|                                                                 |
e|-----8-----7-----5-----3-----3/5-----8-----7-----10----5-----3-5-|
B|-----6-----5-----3-----1-----1/3-----6-----5-----10----3-----1-3-|
G|-----------------------------------------------------------------| < gtr 4
D|-0-0---0-0---0-0---0-0---0-0-----0-0---0-0---0-0----0-0--0-0-----|
A|-----------------------------------------------------------------|
E|-----------------------------------------------------------------|


guitar 4 pre-chorus:
 | x3                                     | x1                             |
e|----------------------------------------|-8-----8-----8-----8-----8---8--|
B|-16-16-16-16-16-16-16-16-15-13-10-------|-6-----6-----6-----8-----6---8--|
G|-13-13-13-13-13-13-13-13-12-10-7--------|--------------------------------|
D|----------------------------------------|--------------------------------|
A|---------------------------------5\\\---|--------------------------------|
E|----------------------------------------|--------------------------------|


bridge:
d|---------------------------------------------------------------|
A|---------------------------------------------------------------|
F|---------------------------------------------------------------|< guitar 1
C|-0-3-0-3-0-0-0-3-0-3-0-0-0-0-0-0-0-3-0-3-0-0-0-5---5-7---7-7-7-|  only
G|-0-3-0-3-0-0-0-3-0-3-0-0-0-0-0-0-0-3-0-3-0-0-0-3-0-3-5---5-5-5-|
C|-0-3-0-3-0-0-0-3-0-3-0-0-0-0-0-0-0-3-0-3-0-0-0-----------------|
   x         x x         x x x x x x         x x
  

d|------------------------------------------------------------------|
A|------------------------------------------------------------------|
F|------------------------------------------------------------------|guitars
C|-0-3-0-3-0-0-0-3-0-3-0-0-0-0-0-0-0-3-0-3-0-0-0-5br(6)-3-5-3-5-0-0-| 1 & 2
G|-0-3-0-3-0-0-0-3-0-3-0-0-0-0-0-0-0-3-0-3-0-0-0-5br(6)-3-5-3-5-0-0-|
C|-0-3-0-3-0-0-0-3-0-3-0-0-0-0-0-0-0-3-0-3-0-0-0-5br(6)-3-5-3-5-0-0-|
   x         x x         x x x x x x         x x                x x      
             


Outro:
d|---------------------------------------------------------|
A|---------------------------------------------------------|
F|---------------------------------------------------------|
C|-0-0---0-0---0-0---0-0---0-0-----0-0---0-0---0-0-5---5-7-|< gtrs 1
G|-0-0-5-0-0-5-0-0-5-0-0-5-0-0-5-5-0-0-5-0-0-5-0-0-3-0-3-5-|  & 2
C|-0-0-0-0-0-0-0-0-0-0-0-0-0-0-0-0-0-0-0-0-0-0-0-0---------|
-| x x   x x   x x   x x   x x     x x   x x   x x         |
d|---------------------------------------------------------|
A|-----10----9------------------------10----9----13--13/15-|
F|-1212--1212-121210101012121210121212--1212-1212----------| < gtr 3
C|---------------------------------------------------------|
G|---------------------------------------------------------|
C|---------------------------------------------------------|
-|                                                         |
e|-----8-----7-----5-----3-----3/5-----8-----7-----3---3/5-|
B|-----6-----5-----3-----1-----1/3-----6-----5-----1---1/3-|
G|---------------------------------------------------------| < gtr 4
D|-0-0---0-0---0-0---0-0---0-0-----0-0---0-0---0-0---------|
A|---------------------------------------------------------|
E|---------------------------------------------------------|



ORDER:
whammy bar nonsense
intro
main riff x4
pre-chorus
main riff x4
pre-chorus
main riff x2
guitar solo x2
pre-chorus (with guitar 4 pre-chorus)
main riff x2
bride (guitar 4 does more whammy bar nonsense)
main riff x2
guitar solo x1
outro


************************************

| /   slide up
| \   slide down
| h   hammer-on
| p   pull-off
| ~   vibrato
| +   harmonic
| x   Mute note
| b   Bend
| pb  Pre-bend
| br  Bend release
| pbr Pre-bend release
| brb Bend release bend

comments
We did not receive enough feedback on this tab! Please rate:
print report bad tab
1 2 3 4 5
2 comments total.
0 reply
HopeForTheWorst wrote on December 14 2010, 01:28 am

Seems right....

0 reply
Sheppy96 wrote on March 7 2011, 03:30 pm

For some reason the whole tab doesn't show up for me on this site :/ I found this tab on another site (it's some kinda link that get's a feed on here). Looks and sounds right so cheers man :)
PS. Please check out my Murderdolls tabs ;)

I want to post or [tab]
guest
You may want to rate the tab now too:
select rating
Please do not post tabs as comments. Select "correction" instead!