Oops, an error
Loading. Please wait.

Absolution Bass Tab

by Muse
ver1
ver1

Album

More versions @911Tabs.com
30,260 views 39 this week
10 commentsread comments
1 2 3 4 5
excellent!
x 25
add to favorites launch autoscroll
font size
0
reset
Autoscroll
+/-
esc
set tempo
stop
Contributor
Difficulty
intermediate
WARNING: You are trying to view
                                    content from Ultimate-Guitar.com
                                    in an unauthorized application,
                                    which is prohibited.

                                    Please use an official Ultimate
                                    Guitar Tabs application for iPhone,
                                    iPad or Android to access legitimate
                                    chords, guitar, bass, and drum tabs
                                    from Ultimate-Guitar.com database.

                                    Type "ultimate guitar tabs" in Apple
                                    App Store's or Android Market's
                                    search to find the application.
Artist - Muse
Album - Absolution
Tabbed by: Zeidrich

Track List:
1.Intro
2.Apocalypse Please
3.Time is Running Out
4.Sing for Absolution
5.Stockholm Syndrome
6.Falling away with you
7.Interlude
8.Hysteria
9.Blackout
10.Butterflies and Hurricanes
11.The Small Print
12.Endlessly
13.Thoughts of a Dying Athiest
14.Ruled by Secrecy

-------------------------------------------------------------------

1.Intro

There isnt actually any bass in this bit, but you can play a low F# with the beat,
or just mute the string but hit it in time.

-------------------------------------------------------------------

2. Apocalypse Please

Piano intro (bass enters just after "and put us"):

G|---------------------------|
D|---------------------------|
A|---------------------------|
E|-2-2--2--2--2-9-9--9--9--9-|

For a few times, then onto (at "this is the end"):

G|------------------------------------------------------------------|
D|------------------------------------------------------------------|
A|------------------------------------------------------------------|
E|-2222222222222222222222222222222244444444444444445555555555555555-

G|------------------------------------------------------------------|
D|------------------------------------------------------------------|
A|------------------------------------------------------------------|
E|-2222222222222222222222222222222299999999999999999999999999999999-

Then go back into intro bit, and then back into the Chorus bit, then onto this bit
when theres kinda a weird synth effect: *note 1111 is 11-11*

G|---66--66--66--66--66--66--66--66--1111--1111--1111--1111--99--99--99--99-|
D|--------------------------------------------------------------------------|
A|-44--44--44--44--44--44--44--44--99----99----99----99----77--77--77--77---| x2
E|--------------------------------------------------------------------------|

G|---66--66--66--66--77--77--77--77-|
D|----------------------------------|
A|-44--44--44--44--55--55--55--55---|
E|----------------------------------|

Then back to the beginning and do it all again, the end goes something like this:
        *let each note ring out for a bar*

G|------------------------------------|
D|------------------------------------|
A|-4---4---4---4-------5---2---4---9--|
E|-----------------2------------------|

-------------------------------------------------------------------

3.Time is Running Out

Bass intro and main riff:

G|-----------------------------------------------------------------|
D|-----------------------------------------------------------------|
A|---------------------------5-5-6-----7-----7-7-------3-------5---|
E|-5-5-8-5-5-8-8-5-7-7-5-7-7-------0-0---0-0-----0-1-1---1-3-3---3-|

Play that various times, until - Prechorus:

G|-----------------------------------------------------------------|
D|-----------------------------------------------------------------|
A|-----------------------------------------------------------------|
E|-1-1-1-1-1-1-1-1-3-3-3-3-3-3-3-3-5-5-5-5-5-5-5-5-3-3-3-3-3-3-3-3-|

G|------------------------------------------------------------------|
D|------------------------------------------------------------------|
A|-----------------------------------------------------10-10-8-8-7--|
E|-1-1-1-1-1-1-1-1-3-3-3-3-3-3-3-3-5-5-5-5-5-5-5-5-8-8--------------|

Chorus 1:

G|-----------------------------------------------------------------|
D|-----------------------------------------------------------------|
A|-------------------------------------------------3-3-3-3-3-3-3-3-|
E|-1-1-1-1-1-1-1-1-3-3-3-3-3-3-3-3-5-5-5-5-5-5-5-5-----------------|

G|-----------------------------------------------------------------|
D|-----------------------------------------------------------------|
A|-----------------------------------------------------3-------5---|
E|-1-1-1-1-1-1-1-1-3-3-3-3-3-3-3-3-5-5-5-5-5-5-5-5-1-1---1-3-3---3-|

Then back to the main riff but various notes are missed out first time:

G|-----------------------------------------------------------------|
D|-----------------------------------------------------------------|
A|-------------------------------------7---------------3-------5---| x2
E|-5-5-8-5---------7-7-5-7---------0-0---0---------1-1---1-3-3---3-|

G|-----------------------------------------------------------------|
D|-----------------------------------------------------------------|
A|---------------------------5-5-6-----7-----7-7-------3-------5---|
E|-5-5-8-5-5-8-8-5-7-7-5-7-7-------0-0---0-0-----0-1-1---1-3-3---3-|

Then play prechorus same as before. Chorus is a bit different:

G|-----------------------------------------------------------------|
D|-----------------------------------------------------------------|
A|-------------------------------------------------3-3-3-3-3-3-3-3-| x2
E|-1-1-1-1-1-1-1-1-3-3-3-3-3-3-3-3-5-5-5-5-5-5-5-5-----------------|

Middle bit:

G|---------------------------------    --------------------------------------|
D|-0-0-2-2-3-3-5-5-5-5-------------    --------------------------------------|
A|---------------------0-0-2-2-3-3- x3 --------------------------------------|
E|---------------------------------    -*muck about with low E and octave E*-|

Play main riff over the solo
Then its the prechorus again like this (basicly twice as fast):

G|------------------------------------------------------------------|
D|------------------------------------------------------------------|
A|------------------------------------------------------------------|
E|-1111111111111111333333333333333355555555555555553333333333333333-

G|------------------------------------------------------------------|
D|------------------------------------------------------------------|
A|------------------------------------------------------10-10-8-8-7-|
E|-1111111111111111333333333333333355555555555555553333-------------|

Then the chorus is just the same as before, and play the middle bit again
Outro goes like this:

G|---------------------------------------------|
D|---------------------------------------------|
A|---------------------------------------------|
E|-5-5-8-5------5-5-8-5----5-5-8-5-*--5-5-8-5--|

* - Use an effect or tune down E-string with right hand to get
    the A note an octave lower. If you tune string then play last
    4 notes on the A-string like: A|-0-0-3-0-

----------------------------------------------------------------------------

4.Sing for Absolution

Should go something like this (miss out D notes first time round):

G|-----------------------------------------------------|
D|-----------------------------------------------------|
A|-5-5--5--5--5-5-5--5--5--5-1-1--1--1--1-1-1--1--1--1-|
E|-----------------------------------------------------|

G|------------------------------------------------------|
D|------------------------------------------------------|
A|-7-7--7--7--7-7-7--7--7--7-0-0--0--0--0-0-0--0--0-3-0-|
E|------------------------------------------------------|

Chorus:

G|-----------------------------------------------------------------|
D|-----------------------------------------------------------------|
A|-0-0-2-3-3-3-3-3-3-3-3-3-3-3-3-8-8-10-10-10-10-10-10-10-10-10-10-|
E|-----------------------------------------------------------------|

G|-----------------------------------------------------------------------------|
D|-----------------------------------------------------------------------------|
A|-----------------------------------------------------------------------------|
E|-13-13-12-12-8-8-8-8-8-8-8-8-8-8-8-8-6-6-5-5-3-3-3-3-3-3-3-3-3-3-3-3-3-3-3-3-|

Solo part is just verse with a kinda more straightforward rythym:

G|-----------------------------------------------------------------|
D|-----------------------------------------------------------------|
A|-5-5-5-5-5-5-5-5-5-5-5-5-5-5-5-5-1-1-1-1-1-1-1-1-1-1-1-1-1-1-1-1-|
E|-----------------------------------------------------------------|

G|-----------------------------------------------------------------|
D|-----------------------------------------------------------------|
A|-----------------------------------------------------------------|
E|-0-0-0-0-0-0-0-0-0-0-0-0-0-0-0-0-5-5-5-5-5-5-5-5-5-5-5-5-5-5-5-7-|

Rest is just chorus then weird outro is just solo part again

------------------------------------------------------------------------------------

5.Stockholm Syndrome

Very fast song, needs a lot of practice on finger picking

G|-------    --------------|
D|-------    --------------|
A|-------    -5 x32--------|
D|-12/-0- x2 -------0 x32--|

Verse:

G|-------------------------------------------|
D|-------------------------------------------|
A|-5 x32--5 x32--5 x16--7 x16--8 x16--9 x16--|
D|-------------------------------------------|

G|---------------------------------------------|
D|---------------------------------------------|
A|-10 x16--8 x16--7 x16--6 x16--12 x32--12 x32-|
D|---------------------------------------------|

Repeat the verse, then into chorus:

G|--------------------|
D|--------------------|
A|--------------------|
D|-x-x-x-x-5-4-3 x32--|

G|-----------------------------------------------------------|
D|-----------------------------------------------------------|
A|-----------------------------------------------------------|
D|-3 x16--2 x16--5 x28-/8-8-8-8--3 x16--2 x16--5 x16--8 x16--|

G|--------------------------------------------|
D|--------------------------------------------|
A|--------------------------------------------|
D|-33333333666666667777777710101010111111112/-

Then just go back into the verse, then into chorus again
Guitar plays main riff a couple of times then into this:

                             (solo begins)
G|-----------------------------|------------------------------------|
D|-----------------------------V------------------------------------|
A|-5 x32--3 x32--5 x32--8 x32--10 x16--8 x16--7 x16--6 x16--12 x64--|
D|------------------------------------------------------------------|

Back into chorus again, then the outro is:

G|---------------------    --------------------|
D|---------------------    --------------------|
A|---------------------    --------------------|
D|-0-0-13-0-12-0-10-12- x3 -0-0-13-0-/12\-/12\-|

G|---------------------    -----|
D|---------------------    -----|
A|---------------------    -----|
D|-0-0-13-0-12-0-10-12- x4 --0--|

---------------------------------------------------------------------------------

6. Falling Away With You

Theres actually no bass until the chorus. This is also quite a fast song:

G|-------------------------------------|
D|-----------------14------------------|
A|-12 x32--12 x30-------12 x32--12 x32-|
E|-------------------------------------|

G|------------------    -------------------|
D|-----77------77---    ------77------77---|
A|-0077--770077--77- x2 --0088--880088--88-| x2
E|------------------    -------------------|
   (11th fret)
G|----------------------    -----------------------|
D|-----1111------1111---    ------1010------1010---|
A|-0077----770077----77- x2 --0077----770077----77-| x2
E|----------------------    -----------------------|

G|----------------------    --------------------------|
D|-----1010------1010---    -------99----------99-----|
A|-5588----885588----88- x2 -551010--1010551010--1010-| x2
E|----------------------    --------------------------|

G|----------------------------------|
D|-------1010----------1010---------|
A|---1010----1010--1010----1010-----|
E|-88------------88-------------8---|

Then thats basicly repeated again after the wee guitar bit.

---------------------------------------------------------------------------------

7. Interlude

No bass in this 'song' anyways, but if u want the melody line, here it is:

G|-------------------------------------------------------------------|
D|-------------------------------------------------------------------|
A|-------------------------------------------------------------------|
E|-5---4----7----8----7--5----1------5---4----5-----4/5--4/5---4/5---|

I guess u can kinda play a bassline like this:

G|---------------------------------------------------------------|
D|---------------------------------------------------------------|
A|---------------------------------------------------------------|
E|-5----4----5----1----3----5----4----5----4/5-----4/5-----4/5---|

Actually that probably IS the bassline, ah well,
its a good bit to lead into Hysteria when youre playing it live.

---------------------------------------------------------------------------------

8. Hysteria

Nice bass intro (same as verse):

G|-------------------------------------------------------------------------------|
D|-------------------------------------------------------------------------------|
A|-0-0-10-0-10-12-0-10-0-7-0-8-8-7-5-7-------------------------------------------|
E|-------------------------------------0-0-10-0-10-12-0-15-0-12-0-15-15-12-15-17-|

G|---------------------------------------------------------------------------|
D|-0-0-10-0-10-12-0-10-0-10-9-0-9-8-0-8-7------------------------------------|
A|----------------------------------------0-10-0-10-12-0-10-0-7-0-8-8-7-5-7--|
E|---------------------------------------------------------------------------|

An easier way to play the first line is:

G|-------------------------------------------------------------------------------|
D|-------------------------------------------------------------------------------|
A|-0-0-10-0-10-12-0-10-0-7-0-8-8-7-5-7------------------10--------10-10----10-12-|
E|-------------------------------------0-0-10-0-10-12-0----0-12-0-------12-------|

I prefer it that way, up to you really.

That is also the verse, so heres the chorus:

G|---5--3-5---5--3-5-------------------------7--5-7---7--5-7----------------------|
D|-----------------------5--3-5---5--3-5--------------------------7--5-7---7--5-7-|
A|-3---------3---------------------------5-5--------5-----------------------------|
E|-------------------3-3---------3----------------------------5-5--------5--------|

G|---5--3-5---5--3-5---------------------|
D|-----------------------5--3-5---5--3-5-|
A|-3---------3---------------------------|
E|-------------------3-3---------3-------|

G|-----7--5-7---7--5-7--------------------------------------------|
D|----------------------------------------------------------------|
A|-5-5--------5---------------------------------------------------|
E|----------------------0-0-10-0-10-12-0-15-0-12-0-15-15-12-15-17-|

Then back into verse, then chorus, but instead of the last line, do this:

G|-----7--5-7---7--5-7----------------------------|
D|------------------------------------------------|
A|-5-5--------5-----------------------------------|
E|----------------------0-0-0-10-0-0-0-0-0-0-12/--|

Bridge:

G|----------------------------------------------------------------|
D|----------------------------------------------------------------|
A|----------------------------------------------------------------|
E|-0-0-10-0-12-0-10-9-0-9-8-0-8-7-0-10-0-10-12-0-10-9-0-9-8-0-8-7-|

G|----------------------------------------------------------------------|
D|----------------------------------------------------------------------|
A|----------------------------------------------------------------------|
E|-0-10-0-12-0-10-9-0-9-8-0-8-7-0-10-0-10-12-0-15-0-12-0-15-15-12-15-17-|

Then into the verse riff for the solo, then the chorus, then repeat first
line of the bridge til end.

-----------------------------------------------------------------------------------

9. Blackout

Really simple song

Verse:

G|-----------------------------------------|
D|-----------------------------------------|
A|--------------------------5----6----8----|
E|-6----5----3----1----6-------------------|

Repeat however many times

Chorus:

G|------------------------------------------|
D|------------------------------------------|
A|-10----8----6----6----5----6----5----3----|
E|------------------------------------------|

Back into verse, chorus, etc etc, its all there

-----------------------------------------------------------------------------------

10. Butterflies and Hurricanes

Theres been a LOT of dispute as to how Chris actually plays the intro to this song.
He does use some form of tapping, but to make life easy im not gonna bother working
that bit out, and im gonna give you the way i play it, with no tapping. Also theres
the question of whether its in dropped D or not, personally i dont bother coz it
sounds fine played in this octave, but feel free to play it dropped D:

Intro/Verse: (play this bit kinda quietly)

G|-------------------------------------------|
D|-0-12-12-0-12-12-0-12-0-12-12-0-12-0-12-12-|
A|-------------------------------------------| x5
E|-------------------------------------------|

G|-------------------------------------------|
D|-0-11-11-0-11-11-0-11-0-11-11-0-11-0-11-11-|
A|-------------------------------------------|
E|-------------------------------------------|

G|-------------------------------------------|
D|-0-10-10-0-10-10-0-10-0-10-10-0-10-0-10-10-|
A|-------------------------------------------|
E|-------------------------------------------|

G|-------------------------------------------------------------------|
D|-0-9-9-0-9-9-0-9-0-9-9-0-9-0-9-9--0-8-8-0-8-8-0-8-0-8-8-0-8-0-8-8--|
A|-------------------------------------------------------------------|
E|-------------------------------------------------------------------|

G|----------------------------------------|
D|-0-12-12-0-11-11-0-10-10-0-9-9-0-8-0-7--|
A|----------------------------------------|
E|----------------------------------------|

G|-------------------------------------------------------------------|
D|-0-6-6-0-6-6-0-6-0-6-6-0-6-0-6-6--0-2-2-0-2-2-0-2-0-2-2-0-2-0-2-2--|
A|-------------------------------------------------------------------|
E|-------------------------------------------------------------------|

G|----------------------------------------------------------------------------|
D|-0-7-7-0-7-7-0-8-0-8-8-0-9-0-9-9--0-11-11-0-11-11-0-11-0-11-11-0-11-0-11-11-|
A|----------------------------------------------------------------------------|
E|----------------------------------------------------------------------------|

G|---------------------------------------------------------------|
D|---------------------/12-12-12-11-11-11-10-10-10-9-9-9-8-8-7-7-|
A|-5 x32--5 x32--5 x16-------------------------------------------|
E|---------------------------------------------------------------|

G|--------------------------------------------------------|
D|-6 x16--2 x16--7-7-7-7-7-7-7-7-8-8-8-8-9-9-9-9-11 x16---|
A|--------------------------------------------------------|
E|--------------------------------------------------------|

Chorus:

G|-----------------------------------------------------------|
D|-8 x16--12 x16--8 x16--12 x16--8 x16--3 x16--4 x16--5 x16--|
A|-----------------------------------------------------------|
E|-----------------------------------------------------------|

G|-------------------------------------|
D|-8 x16--3 x16--8 x16--3 x16--7 x32---|
A|-------------------------------------|
E|-------------------------------------|

Bridge bit:

G|--------------------------------|
D|--------------------------------|
A|--------------------------------|
E|-5--x--12--x--9--x--6--x--3--6--| x2

Verse 2:

G|---------------------------------------------------------------|
D|---------------------/12-12-12-11-11-11-10-10-10-9-9-9-8-8-7-7-|
A|-5 x32--5 x32--5 x16-------------------------------------------|
E|---------------------------------------------------------------|

G|--------------------------------------------------------|
D|-6 x16--2 x16--7-7-7-7-7-7-7-7-8-8-8-8-9-9-9-9-11 x16---|
A|--------------------------------------------------------|
E|--------------------------------------------------------|

G|-----------------------------------------------|
D|-12 x16--11 x16--10 x16--9 x16--8 x16--7 x16---|
A|-----------------------------------------------|
E|-----------------------------------------------|

G|--------------------------------------------------------|
D|-6 x16--2 x16--7-7-7-7-7-7-7-7-8-8-8-8-9-9-9-9-11 x16---|
A|--------------------------------------------------------|
E|--------------------------------------------------------|

Repeat chorus and bridge bit. In the live versions, in the bridge bit they
change the notes after a couple of times to this:

G|---------------------------------|
D|---------------------------------|
A|---------------------------------|
E|-6--x--13--x--10--x--7--x--4--7--|

And then back again. After that bit its just a D note at 5th on A-string
until the bass stops for piano solo.

After solo, it goes back to the quiet intro bit:

G|-------------------------------------------|
D|-0-12-12-0-12-12-0-12-0-12-12-0-12-0-12-12-|
A|-------------------------------------------| x5
E|-------------------------------------------|

G|-------------------------------------------|
D|-0-11-11-0-11-11-0-11-0-11-11-0-11-0-11-11-|
A|-------------------------------------------|
E|-------------------------------------------|

G|-------------------------------------------|
D|-0-10-10-0-10-10-0-10-0-10-10-0-10-0-10-10-|
A|-------------------------------------------|
E|-------------------------------------------|

G|-------------------------------------------------------------------|
D|-0-9-9-0-9-9-0-9-0-9-9-0-9-0-9-9--0-8-8-0-8-8-0-8-0-8-8-0-8-0-8-8--|
A|-------------------------------------------------------------------|
E|-------------------------------------------------------------------|

G|---------------------------------------|
D|-0-12-12-0-11-11-0-10-0-9-9-0-8-0-7-7--|
A|---------------------------------------|
E|---------------------------------------|

G|-------------------------------------------------------------------|
D|-0-6-6-0-6-6-0-6-0-6-6-0-6-0-6-6--0-2-2-0-2-2-0-2-0-2-2-0-2-0-2-2--|
A|-------------------------------------------------------------------|
E|-------------------------------------------------------------------|

G|--------------------------------------|
D|-0-7-7-0-8-8-0-9-0-11-11-0-11-0-11-11-|
A|--------------------------------------|
E|--------------------------------------|

Then straight into the Chorus, and then play bridge bit to finish.

-------------------------------------------------------------------------------

11. The Small Print (Tsp)

Intro:

G|-4-4-4-4-4-4-4-4-------------------------------------------------|
D|-----------------4-4-4-4-4-4-4-4-0-0-0-0-0-0-0-0-4-4-4-4-4-4-4-4-|
A|-----------------------------------------------------------------| x2
D|-----------------------------------------------------------------|

Verse:

G|-----------------------------------------------------------------|
D|---------------------------------------------------------4-4-4-4-|
A|-2-2-2-2-2-2-2-2-2-2-2-2-4-4-4-4-5-5-5-5-5-5-5-5-5-5-5-5---------|
D|-----------------------------------------------------------------|

G|-----------------------------------------------------------------|
D|-5-5-5-5-5-5-5-5-5-5-5-5-4-4-4-4-2-2-2-2-2-2-2-2-4-4-4-4-4-4-4-4-|
A|-----------------------------------------------------------------|
D|-----------------------------------------------------------------|

G|-----------------------------------------------------------------|
D|---------------------------------------------------------4-4-4-4-|
A|-2-2-2-2-2-2-2-2-2-2-2-2-4-4-4-4-5-5-5-5-5-5-5-5-5-5-5-5---------|
D|-----------------------------------------------------------------|

G|------------------------------------------------------|
D|-5-5-5-5-5-5-5-5-5-5-5-5-4-4-4-4-2-2-2-2-2-2-2-2-4~~--|
A|------------------------------------------------------|
D|------------------------------------------------------|

Play intro once, then into Chorus:

G|-----------------------------------------------------------------|
D|-----------------------------------------------------------------|
A|-2-------2-2-2-2-------------------------------------------------| x2
D|-----------------4-4-4-4-4-4-4-4-0-0-0-0-0-0-0-0-4-4-4-4-4-4-4-4-|

G|-----------------------------------------------------------------|
D|-----------------------------------------------------------------|
A|-7-7-7-7-7-7-7-7-9-9-9-9-9-9-9-9-2-------2-2-2-2-----------------|
D|-------------------------------------------------0-0-0-0-0-0-0-0-|

G|---------------------------------|
D|---------------------------------|
A|---------------------------------|
D|-4-4-4-4-4-4-4-4-4-4-4-4-4-4-4-4-|

G|-----------------------------------------------------------------|
D|-----------------------------------------------------------------|
A|-7-7-7-7-7-7-7-7-0-0-0-0-0-0-0-0-5-5-5-5-5-5-5-5-----------------|
D|-------------------------------------------------0-0-0-0-0-0-0-0-|

G|-----------------------------------------------------------------|
D|-----------------------------------------------------------------|
A|-----------------------------------------------------------------|
D|-4-4-4-4-4-4-4-4-4-4-4-4-4-4-4-4-5-5-5-5-5-5-5-5-5-5-5-5-5-5-5-5-|

Then just repeat first two lines of verse for the solo, and then do the whole
of the verse for verse 2. Then do chorus again. Theres a short interlude with
an improvised bass solo over it, just muck around with effects and octave D's.
Then into intro again, then this Chorus:

G|-----------------------------------------------------------------|
D|-----------------------------------------------------------------|
A|-2-2-2-2-2-2-2-2-------------------------------------------------| x2
D|-----------------4-4-4-4-4-4-4-4-0-0-0-0-0-0-0-0-4-4-4-4-4-4-4-4-|

G|-----------------------------------------------------------------|
D|-----------------------------------------------------------------|
A|-7-7-7-7-7-7-7-7-9-9-9-9-9-9-9-9-2-2-2-2-2-2-2-2-----------------|
D|-------------------------------------------------0-0-0-0-0-0-0-0-|

G|---------------------------------|
D|---------------------------------|
A|---------------------------------|
D|-4-4-4-4-4-4-4-4-4-4-4-4-4-4-4-4-|

G|-----------------------------------------------------------------|
D|-----------------------------------------------------------------|
A|-7-7-7-7-7-7-7-7-0-0-0-0-0-0-0-0-5-5-5-5-5-5-5-5-----------------|
D|-------------------------------------------------0-0-0-0-0-0-0-0-|

G|-----------------------------------------------------------------|
D|-----------------------------------------------------------------|
A|-----------------------------------------------------------------|
D|-4-4-4-4-4-4-4-4-4-4-4-4-4-4-4-4-5-5-5-5-5-5-5-5-5-5-5-5-5-5-5-5-|

G|----
D|----
A|-9/-
D|----

---------------------------------------------------------------------------------

12. Endlessly

Huge intro of a verse and chorus, bass enters when the lyrics start at the
2nd verse (kind of offbeat rythym):

G|-------------------------------9-9--9--9--9---------------|
D|-9-7--7--7--7-10-7--7-10-7-9-7----------------------------|
A|--------------------------------------------7-7--7--7--7--| x2
E|----------------------------------------------------------|

Chorus:

G|-----------------------------------------------------|
D|-----------------------------------------------------|
A|-8-5--5--5--5-8-5--5--5--5-3-0--0--0--0-3-0--0--0--0-|
E|-----------------------------------------------------|

G|-----------------------------------------------------|
D|-----------------------------------------------------|
A|-8-5--5--5--5-8-5--5--5--5-8-8--8--8--8-8-8--8--8--8-|
E|-----------------------------------------------------|

G|-----------------------------------------------------|
D|-----------------------------------------------------|
A|-3-3--3--3--3-3-3--3--3--3-7-7--7--7--7-7-7--7--7--7-|
E|-----------------------------------------------------|

G|-----------------------------------------------------|
D|-----------------------------------------------------|
A|-1-1--1--1--1-0-0--0--0--0-5-5--5--5--5-5-5--5--5--5-|
E|-----------------------------------------------------|

G|-----------------------------------------------------|
D|-----------------------------------------------------|
A|---------------------------3-3--3--3--3-3-3--3--3--3-|
E|-3-3--3--3--3-3-3--3--3--3---------------------------|

Then theres a kinda synth solo, then do chorus again

----------------------------------------------------------------------------------

13. Thoughts of a Dying Athiest

A wee guitar bit then the Verse:

G|-----------------------------------5 x8----------------------|
D|-5 x16--3 x16--1 x16--0 x16--5 x8--------3 x16--8 x30--------|
A|-------------------------------------------------------88----|  x2
E|-------------------------------------------------------------|

Chorus:

G|----------------------------------------------------------|
D|-10 x8--8 x8--7 x8--3 x8--8 x8--7 x8--6 x8--5 x8----------|
A|----------------------------------------------------------|
E|----------------------------------------------------------|

G|----------------------------------------------------------------|
D|-10 x8--8 x8--7 x8--3 x8--8 x8--6 x8--5 x8--4 x8---------8 x16--|
A|--------------------------------------------------8 x16---------|
E|----------------------------------------------------------------|

Bridge:

G|------------------------------------------|
D|-5-5-5-----5-5-5-----5-5-5----------------|
A|-------------------------------6-6-6------|
E|------------------------------------------|

Solo is just the verse, then back into the chorus again, then end is just
when you play the last set of notes in the chorus, just slide up a few times
to it, then finish on that note.

-----------------------------------------------------------------------------------

14. Ruled By Secrecy

Verse:

G|---------------------|
D|---------------------|
A|-8----7----6----3----|  x2
E|---------------------|

Chorus:

G|------------------------------------------------------|
D|------------------------------------------------------|
A|-4----5----6----7----8----7--6----11---5----8----8----|
E|------------------------------------------------------|

2nd verse is just same as 1st. On 2nd chorus miss out last two F notes
(8th fret) Then onto Bridge bit:

G|-----------------------------------------|
D|-----------------------------------------|
A|-8----8----7----7----6----6----3----3----|  x2
E|-----------------------------------------|

3rd Chorus:

G|---------------------------------------------------|
D|---------------------------------------------------|
A|-4--4--5--5--6--6--7--7--8--8--7--6--11--11--5--5--|
E|---------------------------------------------------|

Just repeat F (8th fret) as many times as necessary to finish.
10 comments total. Showing first comments.
0 reply
Gu1T@r_H3r0 wrote on October 7 2005, 12:02 pm

Nice goin' dude, this tab is great.

0 reply
bass_man_dan wrote on October 7 2005, 01:50 pm

not as great as me

0 reply
MUSE676 wrote on January 7 2006, 04:39 pm

or me

I want to post or [tab]
guest
You may want to rate the tab now too:
select rating
Please do not post tabs as comments. Select "correction" instead!