Oops, an error
Loading. Please wait.

Absolution Tab

by Muse
ver1
ver1

Album

More versions @911Tabs.com
77,288 views 75 this week
13 commentsread comments
1 2 3 4 5
accurate
x 25
Autoscroll
+/-
esc
set tempo
stop
Contributor
Hey! There's an official Ultimate Guitar app which is ideal
for learning songs when you're away from computer. Get the app
WARNING: You are trying to view
                                    content from Ultimate-Guitar.com
                                    in an unauthorized application,
                                    which is prohibited.

                                    Please use an official Ultimate
                                    Guitar Tabs application for iPhone,
                                    iPad or Android to access legitimate
                                    chords, guitar, bass, and drum tabs
                                    from Ultimate-Guitar.com database.

                                    Type "ultimate guitar tabs" in Apple
                                    App Store's or Android Market's
                                    search to find the application.
Muse
Absolution

1)Intro

2)Apocalypse Please
All Piano

3)Time Is Running Out
This is recorded with two guitars but can be done just as well with one.

Verse 1 (high part at the end, the rest is bass)
e|--12-------11------------12-13-10------|
B|-----13-10----13-10-9-12----------(12)-|
G|---------------------------------------|
D|---------------------------------------|
A|---------------------------------------|x2
E|---------------------------------------|

Pre chorus (Play each chord for a bar each)
e|--------------|
B|--------------|
G|----------5---|
D|-3--5--7--5---|x4
A|-3--5--7--3---|
E|-1--3--5------|
PM .  .  .  .

Second Guitar
e|----------------|
B|----------------|
G|-12--10---9-----|
D|-x---x----x-----|
A|-10--8----7-----|
E|----------------|
   Our time is


Chorus
e|--1--3---5--3----|
B|--1--3---5--3----|
G|--2--4---5--5----|        
D|--3--5---7--5----|
A|--3--5---7--3----|
E|--1--3---5-------|  X2

Instead of going to the last chord play-
e|------------------|
B|------------------|
G|------------------|
D|------------------|
A|-----3--------5---|
E|-1-1---1--3-3---3-|

Solo before 2nd verse(fast picking)
e|--------------------------|
B|--------------------------|
G|-9------8----------9-10-7-|
D|---10-7---10-7-6-9--------|
A|--------------------------|
E|--------------------------|  X1


Verse 2
e|------------------------------------------------|
B|------------------------------------------------|
G|--2-2-5-2---4-4-2-4-------9---------------------|
D|--2-2-5-2---4-4-2-4---2-2-9-2-------------------|
A|--0-0-3-0---2-2-0-2---2-2-7-2-------3--------5--|
E|----------------------0-0---0---1-1---1--3-3---3|  X3
On the third time the second guitar come in with

e|--12-------11------------12-13-10------|
B|-----13-10----13-10-9-12----------(12)-|
G|---------------------------------------|
D|---------------------------------------|
A|---------------------------------------|
E|---------------------------------------|

2nd Pre chorus (Play each chord for a bar each)
e|------------------|
B|------------------|
G|--10--12--14--12--|
D|--x---x---x---x---|
A|--8---10--12--10--|
E|------------------|

e|----------------|
B|----------------|
G|-12--10---9-----|
D|-x---x----x-----|
A|-10--8----7-----|
E|----------------|
  Our time is


Chorus(don't play last line like in first chorus)
e|--1--3---5--3----|
B|--1--3---5--3----|
G|--2--4---5--5----|
D|--3--5---7--5----|
A|--3--5---7--3----|
E|--1--3---5-------|  X2

Interlude
e|------------0-0-0-0-0-0-0-0-0-|
B|------------0-0-0-0-0-0-0-0-0-|
G|--7--7--7---2-2-2-2-2-2-2-2-2-|
D|--7--7--7---2-2-2-2-2-2-2-2-2-|
A|--5--5--5---0-0-0-0-0-0-0-0-0-|
E|------------------------------|      X3    
  Ooh-ooh-ooh   yeah yeah yeah

e|---------|
B|---------|
G|----1----|
D|----2----|
A|----2----|
E|----0----|


The guitar cuts out leaving the base and drums before playing this
e|--12----11----10----8-------|
B|----13----13----12----10----|
G|------14----14-----13---10--|
D|----------------------------|
A|----------------------------|
E|----------------------------|

The second guitar plays this over the above part
e|--12-------11------------12-13-10------|
B|-----13-10----13-10-9-12----------(12)-|
G|---------------------------------------|
D|---------------------------------------|
A|---------------------------------------|
E|---------------------------------------|

3rd Pre chorus (Play each chord for a bar each)
e|------------------|
B|------------------|
G|--10--12--14--12--|
D|--x---x---x---x---|
A|--8---10--12--10--|
E|------------------|

e|----------------|
B|----------------|
G|-12--10---9-----|
D|-x---x----x-----|
A|-10--8----7-----|
E|----------------|
  Our time is


Chorus
e|--1--3---5--3----|
B|--1--3---5--3----|
G|--2--4---5--5----|
D|--3--5---7--5----|
A|--3--5---7--3----|
E|--1--3---5-------|  X2


Interlude
e|------------0-0-0-0-0-0-0-0-0-|
B|------------0-0-0-0-0-0-0-0-0-|
G|--7--7--7---2-2-2-2-2-2-2-2-2-|
D|--7--7--7---2-2-2-2-2-2-2-2-2-|
A|--5--5--5---0-0-0-0-0-0-0-0-0-|
E|------------------------------|      X3
  Ooh-ooh-ooh   yeah yeah yeah

e|---------|
B|---------|
G|----1----|
D|----2----|
A|----2----|
E|----0----|

whoah, yeah, yeah (Play for the duration of Matt's singing)

Outro- (Fast Picking, a bar for each note)
e|--------------|
B|--------------|
G|-9--8--7--5---|
D|--------------|
A|--------------|
E|--------------|

4)Sing For Absolution
All Piano, apart from the solo which I'm not to sure about

Solo
e|-----------------------------------------------------------------|
B|-----------------------------------------------------------------|
G|-----------------------------------------------------------------|
D|-----------------------------------------------------------------|
A|-5----5---7-8-\-1------7-8-\--------------7-8--------7-7--5\7----|
E|------------------------------4-----0----------------------------|

5)Stockholm Syndrome
Intro
Note: Playing the intro riff quickly is quite hard, if you miss out all the open notes then 
you can play it a lot faster, but it sounds just as good.
e|-----------------------|-----------------------|-----------------------|-----------------------|
B|-----------------------|-----------------------|-----------------------|-----------------------|
G|-----------------------|-----------------------|-----------------------|-----------------------|
D|-----------------------|-----------------------|-----------------------|-----------------------|
A|-----------------------|-----------------------|-----------------------|-----------------------|
D|-12-0-13-0-12-0-10h12--|-0-0-13-0-12-0-10h12---|-0-0-13-0-12-0-10h12---|-0-0-13-0-16h17p16-0---|



e|-----------------------|-----------------------|--------------------------|-----------------------|
B|-----------------------|-----------------------|--------------------------|-----------------------|
G|-----------------------|-----------------------|--------------------------|-----------------------|
D|-----------------------|-----------------------|--------------------------|-----------------------|
A|-----------------------|-----------------------|--------------------------|-----------------------|
D|-12-0-13-0-12-0-10h12--|-0-0-13-0-12-0-10h12---|--0-0-[10-10-10-10-10]--0-|-[10-10-10]0[10-10-10]-|
 


Bass comes in
e|-----------------------|-----------------------|-----------------------|-----------------------|
B|-----------------------|-----------------------|-----------------------|-----------------------|
G|-----------------------|-----------------------|-----------------------|-----------------------|
D|-----------------------|-----------------------|-----------------------|-----------------------|
A|-----------------------|-----------------------|-----------------------|-----------------------|
D|-12-0-13-0-12-0-10h12--|-0-0-13-0-12-0-10h12---|-0-0-13-0-12-0-10h12---|-0-0-13-0-16h17p16-0---|



e|-----------------------|-----------------------|-----------------------|-----------------------|
B|-----------------------|-----------------------|-----------------------|-----------------------|
G|-----------------------|-----------------------|-----------------------|-----------------------|
D|-----------------------|-----------------------|-----------------------|-----------------------|
A|-----------------------|-----------------------|-----------------------|-----------------------|
D|-12-0-13-0-12-0-10h12--|-0-0-13-0-12-0-10h12---|-0-0-13-0-12-0-10h12---|-0-0-13-0-16h17p16-0---|



e|-----------------------|-----------------------|-----------------------|-----------------------|
B|-----------------------|-----------------------|-----------------------|-----------------------|
G|-----------------------|-----------------------|-----------------------|-----------------------|
D|-----------------------|-----------------------|-----------------------|-----------------------|
A|-----------------------|-----------------------|-----------------------|-----------------------|
D|-12-0-13-0-12-0-10h12--|-0-0-13-0-12-0-10h12---|-0-0-13-0-12-0-10h12---|-0-0-13-0-16h17p16-0---|



e|-----------------------|-----------------------|-----------------------|-----------------------|
B|-----------------------|-----------------------|-----------------------|-----------------------|
G|-----------------------|-----------------------|-----------------------|-----------------------|
D|-----------------------|-----------------------|-----------------------|-----------------------|
A|-----------------------|-----------------------|-----------------------|-----------------------|
D|-12-0-13-0-12-0-10h12--|-0-0-13-0-12-0-10h12---|-0-0-13-0-12-0-10h12---|-0-0-13-0-16h17p16-0---|


Verse 1

e|-----------------------|-----------------------|-----------------------|-----------------------|
B|-6-(x16)---------------|-5-(x16)---------------|-3-(x16)---------------|-3-(x16)---------------|
G|-7---------------------|-5---------------------|-4---------------------|-3---------------------|
D|-x---------------------|-x---------------------|-x---------------------|-x---------------------|
A|-5---------------------|-3---------------------|-2---------------------|-1---------------------|
D|-----------------------|-----------------------|-----------------------|-----------------------|



e|-----------------------|-----------------------|-----------------------|-----------------------|
B|-6-(x16)---------------|-5-(x16)---------------|-5-(x16)---------------|-6-(x16)---------------|
G|-7---------------------|-6---------------------|-5---------------------|-7---------------------|
D|-x---------------------|-x---------------------|-x---------------------|-x---------------------|
A|-5---------------------|-4---------------------|-3---------------------|-5---------------------|
D|-----------------------|-----------------------|-----------------------|-----------------------|



e|-----------------------|-----------------------|-----------------------|-----------------------|
B|-11-(x16)--------------|-10-(x16)--------------|-8-(x16)---------------|-8-(x16)---------------|
G|-12--------------------|-10--------------------|-9---------------------|-8---------------------|
D|-x---------------------|-x---------------------|-x---------------------|-x---------------------|
A|-10--------------------|-8---------------------|-7---------------------|-6---------------------|
D|-----------------------|-----------------------|-----------------------|-----------------------|



e|-----------------------|-----------------------|-----------------------|-----------------------|
B|-8-(x16)---------------|-8-(x16)---------------|-10-(x16)--------------|-10-(x16)--------------|
G|-9---------------------|-9---------------------|-9---------------------|-9---------------------|
D|-x---------------------|-x---------------------|-x---------------------|-x---------------------|
A|-7---------------------|-7---------------------|-7---------------------|-7---------------------|
D|-----------------------|-----------------------|-----------------------|-----------------------|

Repeat again for second part of verse

Chorus

e|-------------------------|
B|-------------------------|
G|-------------------------|
D|-x-x--5-5---4--4---------|
A|-x-x--5-5---4--4---------|
E|-x-x--5-5---4--4---------|


e|-----------------------|-----------------------|-----------------------|-----------------------|
B|-----------------------|-----------------------|-----------------------|-----------------------|
G|-----------------------|-----------------------|-----------------------|-----------------------|
D|--3-(x8)---------------|--3-(x8)---------------|--3-(x8)---------------|--3-(x8)---------------|
A|--3--------------------|--3--------------------|--3--------------------|--3--------------------|
D|--3--------------------|--3--------------------|--3--------------------|--3--------------------|

A piano plays this part in the actual song but this sounds just as good.

e|-----------------------|-----------------------|-----------------------|-----------------------|
B|-----------------------|-----------------------|-----------------------|-----------------------|
G|-----------------------|-----------------------|-----------------------|-----------------------|
D|--3-(x8)---------------|--3-(x8)---------------|--2-(x8)---------------|--2-(x8)---------------|
A|--3--------------------|--3--------------------|--2--------------------|--2--------------------|
D|--3--------------------|--3--------------------|--2--------------------|--2--------------------|


e|-----------------------|-----------------------|-----------------------|-----------------------|
B|-----------------------|-----------------------|-----------------------|-----------------------|
G|-----------------------|-----------------------|-----------------------|-----------------------|
D|--0-(x8)---------------|--0-(x8)---------------|--0-(x8)---------------|--0-(x8)---------------|
A|--0--------------------|--0--------------------|--0--------------------|--0--------------------|
D|--0--------------------|--0--------------------|--0--------------------|--0--------------------|


e|-----------------------|-----------------------|-----------------------|-----------------------|
B|-----------------------|-----------------------|-----------------------|-----------------------|
G|-----------------------|-----------------------|-----------------------|-----------------------|
D|--3-(x8)---------------|--3-(x8)---------------|--2-(x8)---------------|--2-(x8)---------------|
A|--3--------------------|--3--------------------|--2--------------------|--2--------------------|
D|--3--------------------|--3--------------------|--2--------------------|--2--------------------|


e|-----------------------|-----------------------|-----------------------|-----------------------|
B|-----------------------|-----------------------|-----------------------|-----------------------|
G|-----------------------|-----------------------|-----------------------|-----------------------|
D|--0-(x8)---------------|--0-(x8)---------------|--8-(x8)---------------|--8-(x8)---------------|
A|--0--------------------|--0--------------------|--8--------------------|--8--------------------|
D|--0--------------------|--0--------------------|--8--------------------|--8--------------------|


End bit
e|-----------------------|-----------------|
B|-----------------------|-----------------|
G|-----------------------|-----------------|
D|--3-(x8)----7-(x8)-----|--10-(x8)--11-12-|
A|--3---------7----------|--10-------11-12-|
D|--3---------7----------|--10-------11-12-|




e|-----------------------|-----------------------|----------------------------|----------------|
B|-----------------------|-----------------------|----------------------------|----------------|
G|-----------------------|-----------------------|----------------------------|----------------|
D|-----------------------|-----------------------|----------------------------|----------------|
A|-----------------------|-----------------------|----------------------------|----------------|
D|-12-0-13-0-12-0-10h12--|-0-0-13-0-12-0-10h12-0-|-0-[10]-0-[10]-0-[10]-0-[10]|-0-0-[10]-------| 
                                                             [Harmonics]
                                                      
Verse 2

Same as verse 1 but only play once

Chorus
Same as first chorus

Interlude
e|-----------------------|-----------------------|-----------------------|----------------------|
B|-----------------------|-----------------------|-----------------------|----------------------|
G|-----------------------|-----------------------|-----------------------|----------------------|
D|-----------------------|-----------------------|-----------------------|----------------------|
A|-----------------------|-----------------------|-----------------------|----------------------|
D|-12-0-13-0-12-0-10h12--|-0-0-13-0-12-0-10h12-0-|-0-0-13-0-12-0-10h12-0-|-0-0-13-0-16h17p16-0--|

e|-----------------------|-----------------------|---------------------------|-----------------------|
B|-----------------------|-----------------------|---------------------------|-----------------------|
G|-----------------------|-----------------------|---------------------------|-----------------------|
D|-----------------------|-----------------------|---------------------------|-----------------------|
A|-----------------------|-----------------------|---------------------------|-----------------------|
D|-12-0-13-0-12-0-10h12--|-0-0-13-0-12-0-10h12---|--0-0-[10-10-10-10-10]--0--|-[10-10-10]0[10-10-10]-|

For the next part he uses some sort of pedal to create the effect
e|-----------------------|-----------------------|-----------------------|----------------------|
B|-----------------------|-----------------------|-----------------------|----------------------|
G|-----------------------|-----------------------|-----------------------|----------------------|
D|-----------------------|-----------------------|-----------------------|----------------------|
A|-----------------------|-----------------------|-----------------------|----------------------|
D|-12-0-13-0-12-0-10h12--|-0-0-13-0-12-0-10h12-0-|-0-0-13-0-12-0-10h12-0-|-0-0-13-0-12-0-10h12--|

e|-----------------------|-----------------------|-----------------------|----------------------|
B|-----------------------|-----------------------|-----------------------|----------------------|
G|-----------------------|-----------------------|-----------------------|----------------------|
D|-----------------------|-----------------------|-----------------------|----------------------|
A|-----------------------|-----------------------|-----------------------|----------------------|
D|-0-0-13-0-12-0-10h12-0-|-0-0-13-0-12-0-10h12-0-|-0-0-13-0-12-0-10h12-0-|-0-0-13-0-12-0-10h12--|

e|-----------------------|-----------------------|-----------------------|----------------------|
B|-----------------------|-----------------------|-----------------------|----------------------|
G|-----------------------|-----------------------|-----------------------|----------------------|
D|-----------------------|-----------------------|-----------------------|----------------------|
A|-----------------------|-----------------------|-----------------------|----------------------|
D|-0-0-13-0-12-0-10h12-0-|-0-0-13-0-12-0-10h12-0-|-0-0-13-0-12-0-10h12-0-|-0-0-13-0-12-0-10h12--|

e|-----------------------|-----------------------|-----------------------|----------------------|
B|-----------------------|-----------------------|-----------------------|----------------------|
G|-----------------------|-----------------------|-----------------------|----------------------|
D|-----------------------|-----------------------|-----------------------|----------------------|
A|-----------------------|-----------------------|-----------------------|----------------------|
D|-0-0-13-0-12-0-10h12-0-|-0-0-13-0-12-0-10h12-0-|-0-0-13-0-12-0-10h12-0-|-0-0-13-0-12-0-10h12--|

e|-----------------------------|---------------------------------|
B|-----------------------------|---------------------------------|
G|-----------------------------|---------------------------------|
D|-----------------------------|---------------------------------|
A|--13--10----13--10----13--10-|--12----------12----------12-----|
D|---------12--------12--------|------15--12------15--12-----15--|

e|----------------------------------|----------------------------------|
B|----------------------------------|----------------------------------|
G|----------------------------------|----------------------------------|
D|----------------------------------|----------------------------------|
A|----------------------------------|----------------------------------|
D|--17--14--12--17--14--12--17--14--|--17--13--12--17--13--12--17--13--|

e|-----------------------|-----------------------|-----------------------|-----------------------|
B|-----------------------|-----------------------|-----------------------|-----------------------|
G|-----------------------|-----------------------|-----------------------|-----------------------|
D|--7-0-8-0-7-0-5h7------|--0-0-8-0-7-0-5h7------|--0-0-8-0-7-0-5h7------|--0-0-8-0-7-0-5h7------|
A|-----------------------|-----------------------|-----------------------|-----------------------|
D|-----------------------|-----------------------|-----------------------|-----------------------|

e|-----------------------|-----------------------|-----------------------|
B|-----------------------|-----------------------|-----------------------|
G|-----------------------|-----------------------|-----------------------|
D|--0-0-8-0-7-0-5h7------|--0-0-8-0-7-0-5h7------|---[10--10--10--10]----|
A|-----------------------|-----------------------|---[10--10--10--10]----|
D|-----------------------|-----------------------|---[10--10--10--10]----|

Chorus 3
e|-------------------------|
B|-------------------------|
G|-------------------------|
D|-x-x--5-5---4--4---------|
A|-x-x--5-5---4--4---------|
E|-x-x--5-5---4--4---------|

Go straight to the piano part this time round.

e|-----------------------|-----------------------|-----------------------|-----------------------|
B|-----------------------|-----------------------|-----------------------|-----------------------|
G|-----------------------|-----------------------|-----------------------|-----------------------|
D|--3-(x8)---------------|--3-(x8)---------------|--2-(x8)---------------|--2-(x8)---------------|
A|--3--------------------|--3--------------------|--2--------------------|--2--------------------|
D|--3--------------------|--3--------------------|--2--------------------|--2--------------------|


e|-----------------------|-----------------------|-----------------------|-----------------------|
B|-----------------------|-----------------------|-----------------------|-----------------------|
G|-----------------------|-----------------------|-----------------------|-----------------------|
D|--0-(x8)---------------|--0-(x8)---------------|--0-(x8)---------------|--0-(x8)---------------|
A|--0--------------------|--0--------------------|--0--------------------|--0--------------------|
D|--0--------------------|--0--------------------|--0--------------------|--0--------------------|


e|-----------------------|-----------------------|-----------------------|-----------------------|
B|-----------------------|-----------------------|-----------------------|-----------------------|
G|-----------------------|-----------------------|-----------------------|-----------------------|
D|--3-(x8)---------------|--3-(x8)---------------|--2-(x8)---------------|--2-(x8)---------------|
A|--3--------------------|--3--------------------|--2--------------------|--2--------------------|
D|--3--------------------|--3--------------------|--2--------------------|--2--------------------|


e|-----------------------|-----------------------|-----------------------|-----------------------|
B|-----------------------|-----------------------|-----------------------|-----------------------|
G|-----------------------|-----------------------|-----------------------|-----------------------|
D|--0-(x8)---------------|--0-(x8)---------------|--8-(x8)---------------|--8-(x8)---------------|
A|--0--------------------|--0--------------------|--8--------------------|--8--------------------|
D|--0--------------------|--0--------------------|--8--------------------|--8--------------------|

e|-----------------------|-----------------|
B|-----------------------|-----------------|
G|-----------------------|-----------------|
D|--3-(x8)----7-(x8)-----|--10-(x8)--11-12-|x2
A|--3---------7----------|--10-------11-12-|
D|--3---------7----------|--10-------11-12-|

End part
e|------------------------|-----------------------|-----------------------|-----------------------|
B|------------------------|-----------------------|-----------------------|-----------------------|
G|------------------------|-----------------------|-----------------------|-----------------------|
D|--12-0-13-0-12-0-10-12--|--0-0-13-0-12-0-10-12--|--0-0-13-0-12-0-10-12--|--0-0-13-0-12-0-10-12--|
A|--12-0-13-0-12-0-10-12--|--0-0-13-0-12-0-10-12--|--0-0-13-0-12-0-10-12--|--0-0-13-0-12-0-10-12--|
D|--12-0-13-0-12-0-10-12--|--0-0-13-0-12-0-10-12--|--0-0-13-0-12-0-10-12--|--0-0-13-0-12-0-10-12--|

e|-----------------------|-----------------------|-----------------------|-----------------------|
B|-----------------------|-----------------------|-----------------------|-----------------------|
G|-----------------------|-----------------------|-----------------------|-----------------------|
D|--0-0-13-0-12-0-10-12--|--0-0-13-0-12-0-10-12--|--0-0-13-0-12-0-10-12--|--0-0-13-0-12-0-10-12--|
A|--0-0-13-0-12-0-10-12--|--0-0-13-0-12-0-10-12--|--0-0-13-0-12-0-10-12--|--0-0-13-0-12-0-10-12--|
D|--0-0-13-0-12-0-10-12--|--0-0-13-0-12-0-10-12--|--0-0-13-0-12-0-10-12--|--0-0-13-0-12-0-10-12--|

e|----------------------|
B|----------------------|
G|----------------------|
D|---0--->--------------|
A|---0--->--------------|
D|---0--->--------------|

6)Falling Away With You
Again I'm not too sure about this track.

|-------8-------8-----------8----------8---------8------------8------------8----------8--------------
|----------------------------------------------------------------------------------------------------
|--5-------5--------5------------5---------5----------5-------------5-----------5--------------------
|----------------------------------------------------------------------------------------------------
|----------------------------------------------------------------------------------------------------
|----------------------------------------------------------------------------------------------------

verse 1: ( X4 )

|---------------------|--------------------------------------------------------------|---------------
|--5---6-----8--------|-----------13---------------12---------10--------10-----------|-10--8---6-----
|---------------------|--------------------------------------------------------------|---------------
|---------------------|--------------------------------------------------------------|---------------
|--3---5-----7--------|----/-12--------12----10-------10-----8----8--------8---------|--8---7---5----
|---------------------|--------------------------------------------------------------|---------------

|----------------------------------------------------------------------------1-----------------------
|---5--------5----------------------------------------5----3----1------------1------3-/-5-------5----
|----------------------------------------------------------------------------------2-----------------
|-----------------------4----4----5--------5---------------------------------------------------------
|---3---3-------3-------------------------------------3----2----0--0-------------------------3-----3-
|-----------------------3----4----5-----5-----5------------------------------------------------------


Chorus :


|--A--|--A--|--Dm/A--|--Dm/A--|    |--A--|--A--|--Dm/A--|--Dm/A--|    |--A--|--A--|--Dm/A--|--Dm/A--|

|--A--|--A--|--Am--|--Am--|--F--|--F--|--G--|--G--|--C---C--|


Verse 2:  ( X4)

|-----------------------------------------------------------------------------------------------
|-----------------------------------------------------------------------------------------------
|-----------------------------------------------------------------------------------------------
|---2--3--5-----10--10-----9---9-----7------7---------7---5---3--------2--2---------------------
|---3--5--7-----12--12----10--10----8---8----8--------8---7---5--------3--3------2---2--3-----5-
|-------------------------------------------------------------------------------3--4--5---3---3-

|-----------------------------------------------------------------
|---------------------------------5----3--------------------------
|---------------------2-----2-------------------------5-----------
|---2---2---2--------3----3----2----0----------------2------------    
|---3---2---0----------------------------------------3------------
|---------------------1-------------------------------------------

7)Interlude
Use loads of distortion for this.
Guitar1

|---------|---------------|-------------|-----|-----------------|
|---------|---------------|-------------|-----|-----------------|
|---------|---------------|-------------|-----|-----------------|
|-7-------|-7---6---9-----|--10---9---7-|-7---|--7-------6--7---|
|---------|---------------|-------------|-----|-----------------|
|---------|---------------|-------------|-----|-----------------|

Guitar 2
|---------|----------------|------------|-----|-----------------|
|---------|----------------|------------|-----|-----------------|
|---------|----------------|------------|-----|-----------------|
|---------|----------------|------------|-----|-----------------|
|---------|----------------|------------|-----|-----------------|
|-1-------|-0--------------|--5---------|--1--|--10-------------|
 

Guitar 1

|------------|---------|-----------|-------|
|------------|---------|-----------|-------|
|------------|---------|-----------|-------|
|-7------6---|-7-------|--7--------|---7---|
|------------|---------|-----------|-------|
|------------|---------|-----------|-------|

Guitar 2

|------------|---------|-----------|-----|
|------------|---------|-----------|-----|
|------------|---------|-----------|-----|
|------------|---------|-----------|-----|
|------------|---------|-----------|-----|
|-0----------|-5---4-5-|-5---4-5-5-|--5--|

8)Hysteria
Main Riff
e|---------------------------------------------------------------------------|
B|-----12h13-12----------12h13-12----------12h13-12---------12h13-12---------|
G|-14-----------14---12-----------14--10------------14--9------------14------|
D|---------------------------------------------------------------------------|x2
A|-12----------------11---------------08----------------7--------------------|
E|---------------------------------------------------------------------------|

Chorus
e|-----------------|
B|-----------------|
G|---5-----7-------|
D|---5--5--7--7----|
A|---3--5--5--7----|
E|------3-----5----|

Play the Main Riff after the chorus

Verse 2

Chorus

Interlude

e|------|
B|------|
G|------|
D|------|
A|--7/1-|
E|------|

e|-----------------------------------|
B|-----------------------------------|
G|-----------------------------------|
D|-----------------------------------|x3
A|-0-5--5-7--5--5-4-3--3-2-1-3-0-----|
E|-----------------------------------|

On the fourth time play
e|-------------------------------------|
B|-------------------------------------|
G|-------------------------------------|
D|----------5--5-----5-5-5-----5--7----|
A|--0-5--7---------7---------7---------|
E|-------------------------------------|

Solo

e|--------12-12-------13-13-------13-13-12-12----12-|-----12-12-----13-13-----13-13-12-12---|
B|--10-10-------10-10-------10-10-------------10----|-9-9-------9-9-------9-9-------------9-|
G|--------------------------------------------------|---------------------------------------|
D|--------------------------------------------------|---------------------------------------|
A|--------------------------------------------------|---------------------------------------|
E|--------------------------------------------------|---------------------------------------|

e|--------12-12-------17-17-------13-13-------12-12-|
B|--10-10-------10-10-------10-10-------10-10-------|
G|--------------------------------------------------|
D|--------------------------------------------------|
A|--------------------------------------------------|
E|--------------------------------------------------|

  
e|------12-12-----13-13------13-13-12-12----12-|------12-12-----13-13-----13-13-12-12----12-|
B|-10-10-----10-10-----10-10-------------10----|-10-10-----10-10-----10-10-------------10---|
G|---------------------------------------------|--------------------------------------------|
D|---------------------------------------------|--------------------------------------------|
A|---------------------------------------------|--------------------------------------------|
E|---------------------------------------------|--------------------------------------------|


e|-----12-12-----13-13-----13-13-12-12---|--------12-12-------17-17-------13-13-------12---|
B|-9-9-------9-9-------9-9-------------9-|--10-10-------10-10-------10-10-------10-10------|
G|---------------------------------------|-------------------------------------------------|
D|---------------------------------------|-------------------------------------------------|
A|---------------------------------------|-------------------------------------------------|
E|---------------------------------------|-------------------------------------------------|

  
   
e|-13----------12----------10---------8---------|
B|----10-10-10----------------------------------|
G|----------------10-10-10----9-9-9-----7-7-7---|
D|----------------------------------------------|
A|----------------------------------------------|
E|----------------------------------------------|

2nd Part of solo

e|--8-------8-7----7------7-7-8/10--------10-8-7h8------10-8-7h8------8-7----7--------------
B|----8---------10---8-------------10--------------8-------------8--------10---8------------
G|------9--------------7--------------10-------------9-------------9-------------7----------
D|------------------------------------------------------------------------------------------
A|------------------------------------------------------------------------------------------
E|------------------------------------------------------------------------------------------

e|--7-8/10------10-8-7h8--------------------------------------------------------------------|
B|-----------------------8------------------------------------------------------------------|
G|---------10--------------9----------------------------------------------------------------|
D|------------------------------------------------------------------------------------------|
A|------------------------------------------------------------------------------------------|
E|------------------------------------------------------------------------------------------|

Chorus

e|---------------------------------|
B|---------------------------------|
G|---------------------------------|
D|---------------------------------|x6
A|-0-5--5-7--5---------------------|
E|--------------10-9-8--8-7-6-7/0--|

9)Blackout
Strings and Piano

10)Butterflies & Hurricanes

11)TSP (The Small Print)
Main Riff:

e|-------------------------------------------------|
B|------------3----------------------3-------------|
G|-------------------------------------------------|
D|----3-4-3-4-----4-3-4------3-4-3-4----4-3-4------|x2
A|-------------------------------------------------|
E|-------------------------------------------------|

Verse :

e|---------------|-------------------|---------------------|--------------------------|
B|---------------|-------------------|---------------------|--------------------------|
G|-7--7--7--7----|-7---7----9---9----|-11---11---11---11---|--12----12----14----14----|
D|---------------|-------------------|---------------------|--------------------------|
A|-5--5--5--5----|-5---5----7---7----|--9----9----9----9---|--10----10----12----12----|
E|---------------|-------------------|---------------------|--------------------------|

e|----------------------|--------------------------|--------------------------
B|----------------------|--------------------------|--------------------------
G|-16----16---16---16---|-16----16----18-----16----|--16----16---16----16-----
D|----------------------|--------------------------|--------------------------
A|-14---14---14---14----|-14----16-----14----14----|--14----14---14-----13----
E|----------------------|--------------------------|--------------------------

e|--------------------|
B|--------------------|
G|-15--15---15---15-\-|
D|--------------------|
A|-13--13---13--------|
E|--------------------|


Main Riff


Chorus: 
Some of the chords are palm muted.
e|----|-----|----|----|-------|----|----|-----|-----|-----|----|----|----|
B|----|-----|----|----|-------|----|----|-----|-----|-----|----|----|----|
G|-4--|-----|----|----|-------|-9--|-11-|--4--|-----|-----|----|-9--|----|
D|-4--|--4--|-0--|-4--|--X2---|-9--|-11-|--4--|--0--|--4--|--4-|-9--|-7--|
A|-2--|--4--|-0--|-4--|-------|-7--|-9--|--2--|--0--|--4--|--4-|-7--|-7--|
E|----|--4--|-0--|-4--|-------|----|----|-----|--0--|--4--|--4-|----|-7--|

e|---|---|----|---------|------|--------|
B|---|---|----|---------|------|--------|
G|-7-|-7-|-12-|-12--14--|--15--|-15-----|
D|-7-|-7-|----|---------|------|--------|
A|-5-|-9-|-10-|-10--12--|--13--|-13-----|
E|---|---|----|---------|------|--------|


solo:

e|-------|--------|------|-----------------|-----|----|-------------|--------|
B|-------|--------|------|-----------------|-12/-|-(--|-------------|--------|
G|-------|------6-|---17-|--11-11-12-12-14-|-----|----|-12(9-----15-|-15---\-|
D|-------|--------|---~--|-----------------|-----|----|-------------|--------|
A|-------|--------|------|-----------------|-----|----|------12-----|--------|
E|--9-\--|-\3-----|------|-----------------|-----|----|-------------|--------|


Verse

Chorus

Main Riff, loads of times

Chorus

End with-
e|-----------|
B|-----------|
G|-----------|
D|--9-\------|
A|--9-\------|
E|--9-\------|

12)Endlessly
Piano

13)Thoughts Of A Dying Atheist
E A D G B e

Intro:
|-------10-----10-----10-|-----10-----10------|---10-----10-----10-|
|---------11-----11------|-11----11-----11----|-----11-----11------|
|-11/12-----12-----12----|---12----12-----11-/|12-----12-----12----|
|------------------------|--------------------|--------------------|
|------------------------|--------------------|--------------------|
|------------------------|--------------------|--------------------|

|------10-----10-----|
|-11-----11-----11---|
|---12-----12-----12-|
|--------------------|
|--------------------|
|--------------------|


Verse: X2

|----10------10-----10-|------10-----10-----|---10------10-----10-|
|------11------11------|-11-----11-----11---|------11-----11------|
|---------12-----12----|---12-----12-----12-|--------10-----10----|
|-12-------------------|--------------------|-12------------------|
|----------------------|--------------------|---------------------|
|----------------------|--------------------|---------------------|

|------10-------10-------|----11----11-----11-|------11------11-----|
|-11------11-------11----|------11----11------|-11------11-----11---|
|---10-------10-------10-|--------12----12----|---12------12-----12-|
|------------------------|-13-----------------|---------------------|
|------------------------|--------------------|---------------------|
|------------------------|--------------------|---------------------|

|----10------10-----10-|---10-------10--------|-----------10---------|----------11--------|
|------10------10------|------10------10------|------11-----11----11-|-----13-----13--13--|
|---------12-----12----|---------11-----11/12-|---12---12------12----|---12--12-----12----|
|-12-------------------|-12-------------------|-12-------------------|-13-----------------|
|----------------------|----------------------|----------------------|--------------------|
|----------------------|----------------------|----------------------|--------------------|

|----------11------11-|------11-----11-----|--------------------|--------------------|
|-----10-----10-------|-10-----10-----10---|----11-----11-------|----11-----11-------|
|---10--10-----10-----|---10-----10-----10-|------10-----10---10|------10-----10--10-|
|-10------------------|--------------------|-12-----12-----12---|-13------13----13---|
|---------------------|--------------------|--------------------|--------------------|
|---------------------|--------------------|--------------------|--------------------|

|------------------|-----------------------------
|---11----11----11-|-----11----11----------------
|-----10----10-----|-10----10-----10-------------   
|-12----12----12---|---12----12------12----------       
|------------------|-----------------------------
|------------------|-----------------------------

chorus:

|-11-|-11-|-11-|-11-|-10-|-10-|-10-|-10-|-----|-11-|--11-|-11-|-11-|-10-|-10-|-11-|-11|
|-13-|-11-|-10-|-10-|-11-|-10-|-11-|-12-|-----|-13-|--11-|-10-|-10-|-11-|-11-|-11-|-11|
|-12-|-12-|-10-|-10-|-10-|-10-|-10-|-10-|-----|-12-|--12-|-10-|-10-|-10-|-13-|-12-|-11|
|-10-|-10-|-10-|-10-|-12-|-12-|-12-|-12-|-----|-10-|--10-|-10-|-10-|-12-|-12-|-13-|-13|
|----|----|----|----|----|----|----|----|-----|----|-----|----|----|----|----|----|---|
|----|----|----|----|----|----|----|----|-----|----|-----|----|----|----|----|----|---|

|-10-|-11-|-11-|-10-|
|-11-|-10-|-11-|-11-|
|-10-|-10-|-12-|-10-|
|-12-|-12-|-13-|-12-|
|----|----|----|----|
|--------------------


verse2

chorus


Bridge:

|-x-x-10-----10--10--10-------------10-10-10-------10-10-10-------------
|-x-x-11-----11--11--11---11--------11-11-11-------11-11-11-------------
|-x-x-12-----12--12--12---12--------12-12-12-------12-12-12-------------
|-x-x--------12--12--12---11--------------------------------------------
|-----------------------------------------------------------------------
|-----------------------------------------------------------------------



Solo:

|-----|----|----|-------------------|-----|--------------------|-------|---------|----------------|
|-----|----|----|-------------------|-----|--------------------|-------|---------|----------------|
|-----|----|-12-|-10-------------14-|-14b-|--------17-15-14h15-|-------|-17---17-|-17-15-14--14h15|
|-----|----|----|----12-11-10-------|-----|--------------------|-------|---------|----------------|
|-----|----|----|-------------13----|-----|-10-10--------------|-0-\-/-|---------|----------------|
|13-/-|15--|----|-------------------|-----|--------------------|-------|---------|----------------|


|--------------|-----------------|-------------------|-------------------|-----------------------|-
|--------------|-----------------|-------------------|-------------------|-----------------------|-
|-14-\---------|-15----15\14--15-|--(15)-/-17-----15-|--17---17b-/full\--|--17/full\-17---/full\-|-
|------12--12-/|-----------------|-------------------|-------------------|-----------------------|
|--------------|-----------------|-------------------|-------------------|-----------------------|-
|--------------|-----------------|-------------------|-------------------|-----------------------|

|------------------------|--------------|-------------------------|
|------------------------|--------------|-------------------------|
|------19h17h19b-/full\--|---9b-/full\--|--20b-/full\--~~~~~~~~---|
|------------------------|--------------|-------------------------|
|------------------------|--------------|-------------------------|
|------------------------| -------------|-------------------------|

chorus

end: 

|-10-------|
|-11-------|
|-12-------|
|-12-------|
|----------|
|----------|

14)Ruled By Secrecy
Piano

That's it, enjoy, and sorry about not putting Butterflies & Hurricanes in,
I'll tab it as a single song, any queries or questions then post a comment.
comments
print report bad tab
13 comments total. Showing first comments.
0 reply
huffy wrote on January 22 2004, 12:00 am

yaaayy exact copy of the official book ! long good job for pasting it thx.

0 reply
mikus wrote on February 16 2004, 12:00 am

damn dude, it's very good joy. i realy enjoy it! i've write a tab about falling away with you, but your tab is better. thank you. now i know how to play this song like it really is. thank you again, dude :)

0 reply
Gu1T@r_H3r0 wrote on February 26 2004, 12:00 am

i'm workin on a revised edition of it so the next version will be much more accurate

I want to post or [tab]
guest
You may want to rate the tab now too:
select rating
Please do not post tabs as comments. Select "correction" instead!