Oops, an error
Loading. Please wait.

Absolution Bass Tab

by Muse
ver2
ver2

Album

More versions @911Tabs.com
3,257 views 1 this week
no commentswrite comment
1 2 3 4 5
excellent!
x 1
Autoscroll
+/-
esc
set tempo
stop
Contributor
Difficulty
intermediate
Hey! There's an official Ultimate Guitar app which is ideal
for learning songs when you're away from computer. Get the app
WARNING: You are trying to view
                                    content from Ultimate-Guitar.com
                                    in an unauthorized application,
                                    which is prohibited.

                                    Please use an official Ultimate
                                    Guitar Tabs application for iPhone,
                                    iPad or Android to access legitimate
                                    chords, guitar, bass, and drum tabs
                                    from Ultimate-Guitar.com database.

                                    Type "ultimate guitar tabs" in Apple
                                    App Store's or Android Market's
                                    search to find the application.
Artist - Muse
Album - Absolution
Bassist - Chris Wolstenholme

Track List:
1.Intro
2.Apocalypse Please
3.Time is Running Out
4.Sing for Absolution
5.Stockholm Syndrome
6.Falling away with you
7.Interlude
8.Hysteria
9.Blackout
10.Butterflies and Hurricanes
11.The Small Print
12.Fury
13.Endlessly
14.Thoughts of a Dying Atheist
15.Ruled by Secrecy

Tabbed by October District (mc8ain@hotmail.com)

-------------------------------------------------------------------

1.Intro

-------------------------------------------------------------------

2. Apocalypse Please

INTRO
G|---------------------------|
D|---------------------------|
A|---------------------------|
E|-----------------------14\-|

VERSE
G|---------------------------|
D|---------------------------|
A|--------------4-4--4--4--4-| x2
E|-2-2--2--2--2--------------|

CHORUS
G|--------------------------------|
D|--------------------------------|
A|-9 x32--11 x16--12 x12-12\------|
E|--------------------------------|

G|-----------------|
D|-----------------|
A|-4 x16-----4 x32-|
E|------5 x16------|

INTRO
VERSE
CHORUS

BRIDGE
G|---66--66--66--66--66--66--66--66--1111--1111--1111--1111--77--77--77--77-|
D|--------------------------------------------------------------------------|
A|-44--44--44--44--44--44--44--44--99----99----99----99----55--55--55--55---| x2
E|--------------------------------------------------------------------------|

G|---44--44--44--44--55--55--55--55-|
D|----------------------------------|
A|-22--22--22--22--33--33--33--33---|
E|----------------------------------|

INTRO
VERSE
CHORUS
BRIDGE

OUTRO
G|------------------------------------|
D|------------------------------------|
A|-4---4---4---4-------5---2---4---9--|
E|-----------------2------------------| END.

-------------------------------------------------------------------

3.Time is Running Out

INTRO + VERSE 1
G|-----------------------------------------------------------------|
D|-----------------------------------------------------------------|
A|---------------------------5---6-----7-----7---------3-------5---| x5
E|-5---8-5---8---5-7---5-7---------0-----0-------0-1-----1/3-----3-|

PRECHORUS
G|-----------------------------------------------------------------------------------------|
D|-----------------------------------------------------------------------------------------|
A|-8-8-8-8-8-8-8-8-10-10-10-10-10-10-10-10-12-12-12-12-12-12-12-12-10-10-10-10-10-10-10-10-|
E|-----------------------------------------------------------------------------------------|

G|-----------------------------------------------------------------------------------------|
D|-----------------------------------------------------------------------------------------|
A|-8-8-8-8-8-8-8-8-10-10-10-10-10-10-10-10-12-12-12-12-12-12-12-12-15-15-15-15-15-15-12\---|
E|-----------------------------------------------------------------------------------------|

CHORUS PT.1
G|-----------------------------------------------------------------|
D|-----------------------------------------------------------------|
A|-------------------------------------------------3-3-3-3-3-3-3-3-|
E|-1-1-1-1-1-1-1-1-3-3-3-3-3-3-3-3-5-5-5-5-5-5-5-5-----------------|

G|-----------------------------------------------------------------|
D|-----------------------------------------------------------------|
A|-----------------------------------------------------3-------5---|
E|-1-1-1-1-1-1-1-1-3-3-3-3-3-3-3-3-5-5-5-5-5-5-5-5-1-1---1-3-3---3-|

VERSE 2
G|-----------------------------------------------------------------|
D|-----------------------------------------------------------------|
A|-------------------------------------7---------------3-------5---| x3
E|-5-5-8-5---------7-7-5-7---------0-0---0---------1-1---1-3-3---3-|

G|-----------------------------------------------------------------|
D|-----------------------------------------------------------------|
A|---------------------------5---6-----7-----7---------3-------5---|
E|-5---8-5---8---5-7---5-7---------0-----0-------0-1-----1/3-----3-|

PRECHORUS
CHORUS

POST-CHORUS
G|-------------0-1-2-2-------------|
D|-0-0-2-2-3-3---------------------|
A|---------------------0-0-2-2-3-3-| x3
E|---------------------------------|

G|---------------------------------|
D|---------------------------------|
A|-----7-------7-----7-5---3-2-----|
E|-0-------0-0-----------5-----3-0-|

INTRO RIFF x3
PRECHORUS
CHORUS
POST-CHORUS
	FINAL BAR:
G|---------------------------------|
D|---------------------------------|
A|-----7-7-----7-7-----7\----------|
E|-0-0-----0-0-----0-0-----0-0-0---|

OUTRO
G|----------------------------------------------------------|
D|----------------------------------------------------------|
A|----------------------------------------------------------|
E|-5-5-8-5---------5-5-8-5---------5-5-8-5---------5-5-8-5\-| END.

----------------------------------------------------------------------------

4.Sing for Absolution

INTRO + VERSE 1
G|-----------------------------------------------------|
D|-----------------------------------------------------|
A|-5-5--5--5--5-5-5--5--5--5---------------------------|
E|---------------------------6-6--6--6--6-6-6--6--6--6-|

G|-----------------------------------------------------|
D|-----------------------------------------------------|
A|-7-7--7--7--7-7-7--7--7--7-----------------------3---| x2
E|---------------------------5-5--5--5--5-5-5--5-5---5-|

G|-----------------------------------------------------|
D|-----------------------------------------------------|
A|-5-5--5--5--5-5-5--5--5--5---------------------------|
E|---------------------------6-6--6--6--6-6-6--6--6--6-|

G|------------------------------------------------------|
D|------------------------------------------------------|
A|-7-7--7--7--7-7-7--7--7--7----------------------------|
E|---------------------------5-5--5--5--5-5-5--5--5-5-7-|

CHORUS
G|-----------------------------------------------------------------------|
D|-----------------------------------------------------------------------|
A|-3-3-3-3-3-3-3-3-3-3-3-3-8-8-10-10-10-10-10-10-10-10-10-10-10-10-10-10-|
E|-----------------------------------------------------------------------|

G|-------------------------------------------------------------------------|
D|-------------------------------------------------------------------------|
A|-8-8-7-7-3-3-3-3-3-3-3-3-3-3-3-3-----------------------------------------|
E|---------------------------------6-6-5-5-3-3-3-3-3-3-3-3-3-3-3-3-3-3-3---|

VERSE 2
CHORUS

SOLO
G|-----------------------------------------------------------------|
D|-----------------------------------------------------------------|
A|-5-5-5-5-5-5-5-5-5-5-5-5-5-5-5-5---------------------------------|
E|---------------------------------6-6-6-6-6-6-6-6-6-6-6-6-6-6-6-6-|

G|-----------------------------------------------------------------|
D|-----------------------------------------------------------------|
A|---------------------------------0-0-0-0-0-0-0-0-0-0-0-0-0-0-0-2-|
E|-0-0-0-0-0-0-0-0-0-0-0-0-0-0-0-0---------------------------------|

CHORUS
SOLO

OUTRO
G|-------------------------------------------------------|
D|-------------------------------------------------------|
A|-5-5--5--5--5-5-5--5--5--5-5-5--5--5--5-5-5--5--5--5-5-|
E|-------------------------------------------------------| END.

------------------------------------------------------------------------------------

5.Stockholm Syndrome

INTRO
G|-----------------------|
D|-----------------------|
A|-----------------------|
D|-12/-0-----------------| x2

G|--------------|
D|--------------|
A|-5 x32--------|
D|-------0 x32--| x2

VERSE 1
G|-------------------------------------------|
D|-------------------------------------------|
A|-5 x32--5 x32--5 x16--7 x16--8 x16--9 x16--|
D|-------------------------------------------|

G|---------------------------------------------|
D|---------------------------------------------|
A|-10 x16--8 x16--7 x16--6 x16--12 x32--12 x32-|
D|---------------------------------------------|

VERSE 2
	FINAL BAR:
G|-----------------------------|
D|-----------------------------|
A|-12 x32--0 x16--0-0----------|
D|--------------------7\--5--4-|

PRECHORUS
(HALF SPEED)
G|---------|
D|---------|
A|---------|
D|--3 x32--|

G|----------------------------------------------------------|
D|----------------------------------------------------------|
A|----------------------------------------------------------|
D|-3 x16--2 x16--0 x28-/12 x4---3 x16--2 x16--0 x16--8 x16--|

POSTCHORUS
G|---------------------------------------------|
D|---------------------------------------------|
A|---------------------------------------------|
D|-33-333-366-666-677-777-7101010101111111112/-|

VERSE 3 (AS VERSE 2)
PRECHORUS
CHORUS
POSTCHORUS

BRIDGE + SOLO
G|------------------------------------------------------------------|
D|------------------------------------------------------------------|
A|-5 x32--3 x32--5 x32--8 x32--10 x16--8 x16--7 x16--6 x16--12 x64--|
D|------------------------------------------------------------------|

CHORUS
POSTCHORUS X2

OUTRO

G|---------------------|
D|---------------------|
A|---------------------|
D|-0-0-13-0-12-0-10-12-| x3

G|----------------------|
D|----------------------|
A|----------------------|
D|-0-0-13-0-12\---12\---|

G|---------------------|
D|---------------------|
A|---------------------|
D|-0-0-13-0-12-0-10-12-| x4

G|---------------------|
D|---------------------|
A|---------------------|
D|-0-------------------| END.

---------------------------------------------------------------------------------

6. Falling Away With You

CHORUS 1 PT.1
G|-------------------------------------|
D|-------------------------------------|
A|-12----------------------------------|
E|-------------------------------------|
					 x2
G|-------------------------------------|
D|---------------------------12-141414-|
A|-12----------------------------------| 
E|-------------------------------------|

CHORUS PT.2
G|----------------------------------|
D|-----77------77------77------77---|
A|---77--77--77--77--77--77--77--77-|
E|-55------55------55------55-------|

G|---------------------55------55---|
D|-----77------77-------------------|
A|---88--88--88--88--88--88--88--88-|
E|-55------55------55------55-------|

G|-----66------66------66------66---|
D|----------------------------------|
A|---77--77--77--77--77--77--77--77-|
E|-55------55------55------55-------|

G|-----55------55------55------55---|
D|----------------------------------|
A|---77--77--77--77--77--77--77--77-|
E|-55------55------55------55-------|

G|-----55------55------55------55---|
D|---33--33--33--33--33--33--33--33-|
A|-33------33------33------33-------|
E|----------------------------------|

G|-----44------44------44------44---|
D|---55--55--55--55--55--55--55--55-|
A|-55------55------55------55-------|
E|----------------------------------|

G|-----55------55--5\---------------|
D|---55--55--55--55-----------------|
A|-33------33-----------------3-5-7-|
E|----------------------------------|

VERSE 2
G|-----------------------------------------|
D|-----------------------------------------|
A|-12-12-12-12-10-10-10-10-8-8-8-8-8-8-7-5-|
E|-----------------------------------------|

G|---------------------------------|
D|---------------------------------|
A|-3-3-3-3-------------------3-2-0-|
E|---------3-3-4-4-5-5-5-5-5-------|

G|---------------------------------|
D|---------------------------------|
A|-----------------3-3-3-3-3-3-5-7-| ALLx4
E|-1-1-1-1-1-1-0-0-----------------|

REPEAT FINAL BAR:
G|-----------------------------------|
D|-----------------------------------|
A|-----------------7-7-7-7-7-7-7-7-7-|
E|-1-1-1-1-1-1-0-0-------------------|

CHORUS 2 PT.1
G|----------------------------------|
D|-----77------77------77------77---|
A|---77--77--77--77--77--77--77--77-|
E|-55------55------55------55-------|
				      x2
G|----------------------------------|
D|-----77------77------77------77---|
A|---88--88--88--88--88--88--88--88-|
E|-55------55------55------55-------|

CHORUS PT.2 - AS CHORUS 1
	FINAL BAR:
G|-----55------55------55------55---|
D|---55--55--55--55--55--55--55--55-|
A|-33------33------33------33-------|
E|----------------------------------|

G|-5------------------------|
D|--------------------------|
A|--------------------------|
E|--------------------------|

OUTRO
G|-----------------------------------------|
D|-----------------------------------------|
A|-3-5-7-12---12---10---10---8-------8-7-5-|
E|-----------------------------------------|

G|---------------------------------|
D|---------------------------------|
A|-3---3---------------------3-2-0-|
E|---------3---4---5---------------|

G|---------------------------------|
D|---------------------------------|
A|-----------------3---------3-2-0-|
E|-1---1---1---0-------------------|

G|---------------------------------|
D|---------------------------------|
A|---------------------------------|
E|-1---1---1---1-------------8-----| END.

---------------------------------------------------------------------------------

7. Interlude

---------------------------------------------------------------------------------

8. Hysteria

INTRO
G|----------------------------------------------------------------------------|
D|----------------------------------------------------------------------------|
A|-0-0-10p0-10-12-0-10-0-7-0-8-8-7-5-7------------------10-0-7-0-10-0-7-10/12-|
E|-------------------------------------0-0-10-0-10-12-0-----------------------|
										x4
G|---------------------------------------------------------------------------|
D|-0-0-10-0-10-12-0-10-0-10-9-0-9-8-0-8-7------------------------------------|
A|----------------------------------------0-10-0-10-12-0-10-0-7-0-8-8-7-5-7--|
E|---------------------------------------------------------------------------|

VERSE 1 x2

CHORUS
G|---5-3h5-----5-3h5-------------------------7-5h7-----7-5h7-----------------------|
D|-----------------------5-3h5-----5--3-5------------------------7-5h7-----7-5h7---|
A|-3--------3---------3---------------------5-------5---------5--------------------|
E|---------------------3--------3----------3-------------------5--------5--------5-|

REPEAT x1 - FINAL BAR:
G|----------------------------------------|
D|----------------------------------------|
A|------------------10-0-7-0-10-0-7-10/12-|
E|-0-0-10-0-10-12-0-----------------------|

RIFF x1
VERSE 2 x2

G|---7-5h7-----7-5h7--------------------------|
D|-----------------------7-5h7----------------|
A|-5--------5---------5-----------------------|
E|---------------------5--------5--5/12\------|

BRIDGE
G|--------------------------------|
D|--------------------------------|
A|--------------------------------| x3
E|-0-0-10-0-12-0-10-9-0-9-8-0-8-7-|

G|--------------------------------------|
D|--------------------------------------|
A|----------------10-0-7-0-10-0-7-10/12-|
E|-0-10-0-10-12-0-----------------------|

SOLO PT.1 - VERSE RIFF x2
FINAL BAR:
G|-9-------7-------5-------4-------|
D|---7-7-7-------------------------|
A|-----------8-8-8---7-7-7---5-5-5-|
E|---------------------------------|

SOLO PT.2 - CHORUS RIFF x2

OUTRO - BRIDGE RIFF PT.1 x6

-----------------------------------------------------------------------------------

9. Blackout


G|---------------------------------|
D|---------------------------------|
A|---------------------5---6---8---| x2
E|-6---5---3---1---6---------------|

G|----------------------------------|
D|----------------------------------|
A|-10---8---6---6---5---6---5---3---|
E|----------------------------------|

G|---------------------------------|
D|---------------------------------|
A|---------------------5---6---8---|
E|-6---5---3---1---6---------------|

G|----------------------------------|
D|----------------------------------|
A|-10---8---6---6---5---6---5---3---|
E|----------------------------------|

SOLO
G|---------------------------------|
D|---------------------------------|
A|---------------------------------|
E|-6-------------------------------|

G|---------------------------------|
D|---------------------------------|
A|---------------------5---6---8---|
E|-6---5---3---1---6---------------|

G|----------------------------------|
D|----------------------------------|
A|-10---8---6---6---5---6---5---3---|
E|----------------------------------|

G|---------------------------------|
D|---------------------------------|
A|---------------------5---6---8---|
E|-6---5---3---1---6---------------|

G|----------------------------------|
D|----------------------------------|
A|-10---8---6---6---5---6---5---3---|
E|----------------------------------|

G|---------------------------------|
D|---------------------------------|
A|---------------------------------|
E|-6-------------------------------| END.

-----------------------------------------------------------------------------------

10. Butterflies and Hurricanes

INTRO
(TAPPED)
G|-------------------------------------------|
D|---12-12---12-12---12---12-12---12---12-12-|
A|-5-------5-------5----5-------5----5-------| x4
D|-------------------------------------------|

VERSE 1
(TAPPED)
G|-------------------------------------------|
D|---12-12---12-12---12---12-12---12---12-12-|
A|-5-------5-------5----5-------5----5-------|
D|-------------------------------------------|

G|-------------------------------------------|
D|---11-11---11-11---11---11-11---11---11-11-|
A|-5-------5-------5----5-------5----5-------|
D|-------------------------------------------|

G|-------------------------------------------|
D|---10-10---10-10---10---10-10---10---10-10-|
A|-5-------5-------5----5-------5----5-------|
D|-------------------------------------------|

G|---------------------------------|
D|---9-9---9-9---9---9-9---9---9-9-|
A|-5-----5-----5---5-----5---5-----|
D|---------------------------------|

G|---------------------------------|
D|---8-8---8-8---8---8-8---8---8-8-|
A|-5-----5-----5---5-----5---5-----|
D|---------------------------------|

G|--------------------------------------|
D|---12-----11-----10-----9-----8---7---|
A|-5----5-5----5-5----5-5---5-5---5---5-|
D|--------------------------------------|

G|---------------------------------------|
D|----9-9----9-9----9----9-9----9----9-9-|
A|-11-----11-----11---11-----11---11-----|
D|---------------------------------------|

G|---------------------------------|
D|---9-9---9-9---9---9-9---9---9-9-|
A|-7-----7-----7---7-----7---7-----|
D|---------------------------------|

G|----7-7----7-7----------------------------|
D|------------------9----9-9----10----10-10-|
A|-12-----12-----12---12-----12----12-------|
D|------------------------------------------|

G|-------------------------------------------------|
D|----11-11----11-11----11----11-11----11----11-11-|
A|-12-------12-------12----12-------12----12-------|
D|-------------------------------------------------|

VERSE 2
(FINGERED)
G|-----------------------------------------------------------------------|
D|-----------------------------------------------------------------------|
A|-5 x32--5 x32--5 x16-/17-17-17-16-16-16-15-15-15-14-14-14-13-13-12-12--|
D|-----------------------------------------------------------------------|

G|------------------------|
D|------------------------|
A|-11 x16--7 x16--12-x16\-|
D|------------------------|

CHORUS 1
G|----------------------------------------------------------|
D|----------------------------------------------------------|
A|--------5 x16---------5 x16---------8 x16--9 x16--10 x16--|
D|-8 x16---------8 x16---------8 x16------------------------|

G|------------------------------------|
D|------------------------------------|
A|--------8 x16---------8 x16--12x32--|
D|-8 x16---------8 x16----------------|

RIFF
G|-----------------------------------|
D|-----------------------------------|
A|-----------------------------------| x2
D|-7-----14-----11-----8-----5---8---|

VERSE 3
G|-----------------------------------------------------------------------|
D|-----------------------------------------------------------------------|
A|-5 x32--5 x32--5 x16-/17-17-17-16-16-16-15-15-15-14-14-14-13-13-12-12--|
D|-----------------------------------------------------------------------|

G|-----------------------|
D|-----------------------|
A|-11 x16--7 x16--12 x32-|
D|-----------------------|

VERSE 4
G|-----------------------------------------------|
D|-----------------------------------------------|
A|-----------------------------------------------|
D|-12 x16--11 x16--10 x16--9 x16--8 x16--7 x16---|

G|----------------------|
D|----------------------|
A|----------------------|
D|-6 x16--2 x16--7 x32--|

CHORUS 2
RIFF

STRING SECTION
G|-------------------------------------------|
D|-------------------------------------------|
A|-5 x32--5 x32--5 x32--5 x32--5 x32--5 x32--|
D|-------------------------------------------|

PIANO SOLO
G|-------------------------------------------|
D|-------------------------------------------|
A|-5-----------------------------------------|
D|-------------------------------------------|

VERSE 5
(TAPPED AS VERSE 1)

CHORUS 3

OUTRO
G|------------------------------------|
D|------------------------------------|
A|-12---------------------------------|
D|--------14-----11-----8-----5---8---|

G|-----------------------------------|
D|-----------------------------------|
A|-----------------------------------|
D|-7-----14-----11-----8-----5---8---|

G|-----|
D|-----|
A|-----|
D|-0---| END.

-------------------------------------------------------------------------------

11. The Small Print (Tsp)

INTRO

RIFF
G|-4-4-4-4-4-4-4-4-------------------------------------------------|
D|-----------------4-4-4-4-4-4-4-4-0-0-0-0-0-0-0-0-4-4-4-4-4-4-4-4-|
A|-----------------------------------------------------------------| x2
D|-----------------------------------------------------------------|

VERSE 1
G|-----------------------------------------------------------------|
D|---------------------------------------------------------4-4-4-4-|
A|-2-2-2-2-2-2-2-2-2-2-2-2-4-4-4-4-5-5-5-5-5-5-5-5-5-5-5-5---------|
D|-----------------------------------------------------------------|

G|-----------------------------------------------------------------|
D|-5-5-5-5-5-5-5-5-5-5-5-5-4-4-4-4-2-2-2-2-2-2-2-2-4-4-4-4-4-4-----|
A|-------------------------------------------------------------0-0-|
D|-----------------------------------------------------------------|

G|-----------------------------------------------------------------|
D|---------------------------------------------------------4-4-4-4-|
A|-2-2-2-2-2-2-2-2-2-2-2-2-4-4-4-4-5-5-5-5-5-5-5-5-5-5-5-5---------|
D|-----------------------------------------------------------------|

G|-----------------------------------------------------------------|
D|-5-5-5-5-5-5-5-5-5-5-5-5-4-4-4-4-2-2-2-2-2-2-2-2-4-4-4-4-4-4-4-4-|
A|-----------------------------------------------------------------|
D|-----------------------------------------------------------------|

RIFF
G|-4-4-4-4-4-4-4-4-------------------------------------------------|
D|-----------------4-4-4-4-4-4-4-4-0-0-0-0-0-0-0-0-4-4-4-4-4-4-4-4-|
A|-----------------------------------------------------------------|
D|-----------------------------------------------------------------|

CHORUS 1
G|-----------------------------------------------------------------|
D|-----------------------------------------------------------------|
A|-2-------2-2-2-2-------------------------------------------------| x2
D|-----------------4-4-4-4-4-4-4-4-0-0-0-0-0-0-0-0-4-4-4-4-4-4-4-4-|

G|-----------------------------------------------------------------|
D|-----------------------------------------------------------------|
A|-7-7-7-7-7-7-7-7-9-9-9-9-9-9-9-9-2-------2-2-2-2-----------------|
D|-------------------------------------------------0-0-0-0-0-0-0-0-|

G|---------------------------------|
D|---------------------------------|
A|---------------------------------|
D|-4-4-4-4-4-4-4-4-4-4-4-4-4-4-4-4-|

G|-----------------------------------------------------------------|
D|-----------------------------------------------------------------|
A|-7-7-7-7-7-7-7-7-0-0-0-0-0-0-0-0-5-5-5-5-5-5-5-5-----------------|
D|-------------------------------------------------4-4-4-4-4-4-4-4-|

G|-----------------------------------------------------------------|
D|-----------------------------------------------------------------|
A|-----------------------------------------------------------------|
D|-5-5-5-5-5-5-5-5-5-5-5-5-5-5-5-5-5-5-5-5-5-5-5-5-5-5-5-5-5-5-5-5-|

SOLO
G|-----------------------------------------------------------------|
D|---------------------------------------------------------4-4-4-4-|
A|-2-2-2-2-2-2-2-2-2-2-2-2-4-4-4-4-5-5-5-5-5-5-5-5-5-5-5-5---------|
D|-----------------------------------------------------------------|

G|-----------------------------------------------------------------|
D|-5-5-5-5-5-5-5-5-5-5-5-5-4-4-4-4-2-2-2-2-2-2-2-2-4-4-4-4-4-4-----|
A|-------------------------------------------------------------0-0-|
D|-----------------------------------------------------------------|

VERSE 2
CHORUS

RIFF
(BASS SLIDES)
G|-----------------------------------------------------------------|
D|-----------------------------------------------------------------|
A|-----------------------------------------------------------------|
D|----------------------------------8\-3/4~/12\--------------------|

G|-4-4-4-4-4-4-4-4-------------------------------------------------|
D|-----------------4-4-4-4-4-4-4-4-0-0-0-0-0-0-0-0-4-4-4-4-4-4-4-4-|
A|-----------------------------------------------------------------| x2
D|-----------------------------------------------------------------|

FINAL CHORUS
G|-----------------------------------------------------------------|
D|-----------------------------------------------------------------|
A|-2-2-2-2-2-2-2-2-------------------------------------------------| x2
D|-----------------4-4-4-4-4-4-4-4-0-0-0-0-0-0-0-0-4-4-4-4-4-4-4-4-|

G|-----------------------------------------------------------------|
D|-----------------------------------------------------------------|
A|-7-7-7-7-7-7-7-7-9-9-9-9-9-9-9-9-2-2-2-2-2-2-2-2-----------------|
D|-------------------------------------------------0-0-0-0-0-0-0-0-|

G|---------------------------------|
D|---------------------------------|
A|---------------------------------|
D|-4-4-4-4-4-4-4-4-4-4-4-4-4-4-4-4-|

G|-----------------------------------------------------------------|
D|-----------------------------------------------------------------|
A|-7-7-7-7-7-7-7-7-0-0-0-0-0-0-0-0-5-5-5-5-5-5-5-5-----------------|
D|-------------------------------------------------4-4-4-4-4-4-4-4-|

G|-----------------------------------------------------------------|
D|-----------------------------------------------------------------|
A|-----------------------------------------------------------------|
D|-5-5-5-5-5-5-5-5-5-5-5-5-5-5-5-5-5-5-5-5-5-5-5-5-5-5-5-5-5-5-5-5-|

G|-----|
D|-----|
A|-----|
D|-9\--| END.

---------------------------------------------------------------------------------

12. Fury

INTRO
G|------------------------------------|
D|------------------------------------|
A|-12\----3---5---6-7---------10---11-| x4
E|------------------------------------|

VERSE 1
G|------------------------------------|
D|------------------------------------|
A|-12\----3---5---6-7---------10---11-| x4
E|------------------------------------|

CHORUS PT.1
G|-------7---------------7---------|
D|---------------------------------|
A|-5---------------5---------------|
E|---------------------------------|

G|-------10--------------10--------|
D|---------------------------------|
A|-8---------------8---------------|
E|---------------------------------|

G|-------5---------------5---------|
D|---------------------------------|
A|-3---------------3---------------|
E|---------------------------------|

G|-------9---------------9---------|
D|---------------------------------|
A|-7---------------7---------------|
E|---------------------------------|

CHORUS PT.2
G|-------7-----575-------7-----57--|
D|-----------57---7----------57----|
A|-5---------------5---------------|
E|---------------------------------|

G|-------10-----9109--------10-----910--|
D|-----------910----10----------910-----|
A|-8------------------8-----------------|
E|--------------------------------------|

G|-------5-----454-------5-----45--|
D|-----------45---5----------45----|
A|-3---------------3---------------|
E|---------------------------------|

G|-------9-----797-------9-----79--|
D|-----------79---9----------79----|
A|-7---------------7---------------|
E|---------------------------------|

RIFF
G|-----------------------------------|
D|-----------------------------------|
A|-------3---5---6-7---------10---11-|
E|-5---------------------------------|

G|------------------------------------|
D|------------------------------------|
A|-12\----3---5---6-7---------10---11-|
E|------------------------------------|

VERSE 2
CHORUS

RIFF 2
G|----------------------------------------|
D|----------------------------------------|
A|----------------------------------------| x4
E|-12\--3--6--7--0----12\--3--6--7--10-12-|

RIFF x4
CHORUS

G|----------------------------------------|
D|----------------------------------------|
A|----------------------------------------| x3
E|-12\--3--6--7--0----12\--3--6--7--10-12-|

G|------------------------------------|
D|------------------------------------|
A|------------------------------------|
E|-12\--3--6--7--0----12\--3--6--7--0-| END.
---------------------------------------------------------------------------------

13. Endlessly

INTRO
VERSE 1
CHORUS 1
BRIDGE 1

VERSE 2
G|----------------------------9------------9--------------|
D|-9-7--7--7--7-10-7--7--7--7---9--9--9--9----------------|
A|-------------------------------------------7-7--7--7--7-|
E|--------------------------------------------------------|

G|-----------------------------9------------9--------------|
D|-10-7--7--7--7-10-7--7--7--7---9--9--9--9----------------|
A|--------------------------------------------7-7--7--7--7-|
E|---------------------------------------------------------|

CHORUS 2
G|-----------------------------------------------------|
D|-----------------------------------------------------|
A|-8-5--5--5--5-8-5--5--5--5-3-0--0--0--0-3-0--0--0--0-|
E|-----------------------------------------------------|

G|-----------------------------------------------------|
D|-----------------------------------------------------|
A|-8-5--5--5--5-8-5--5--5--5-5-8--8--8--8-5-8--8--8--8-|
E|-----------------------------------------------------|

G|-----------------------------------------------------|
D|-5---------------------------------------------------|
A|---3--3--3--3-3-3--3--3--3-7------------7------------|
E|-----------------------------7--7--7--7---7--7--7--7-|

G|-----------------------------------------------------|
D|-----------------------------------------------------|
A|-7------------8------------8-5--5--5--5-8-5--5--5--5-|
E|---6--6--6--6---5--5--5--5---------------------------|

G|-----------------------------------------------------|
D|-5------------5--------------------------------------|
A|---------------------------3-3--3--3--3-3-3--3--3--3-|
E|---3--3--3--3---3--3--3--3---------------------------|

BRIDGE 2

CHORUS 3
END.

----------------------------------------------------------------------------------

14. Thoughts of a Dying Atheist

INTRO

VERSE 1
G|-----------------------------------5 x8----------------------|
D|-5 x16--3 x16--1 x16--0 x16--5 x8--------3 x16--8 x30--3-4---|
A|-------------------------------------------------------------|
E|-------------------------------------------------------------|

G|-----------------------------------5 x8-----------------------|
D|-5 x16--3 x16--1 x16--0 x16--5 x8--------3 x16--8 x29---------|
A|------------------------------------------------------8-8-9---|
E|--------------------------------------------------------------|

CHORUS
G|--------------------------------------------------|
D|--------------------------------------------------|
A|--------------------------------------------------|
E|-8 x8--6 x8--5 x8--1 x8--6 x8--5 x8--4 x8--3 x8---|

G|--------------------------------------------------|
D|--------------------------------------------------|
A|--------------------------------------------------|
E|-8 x8--6 x8--5 x8--1 x8--6 x8--4 x8--3 x8--2 x8---|

G|----------------|
D|----------------|
A|----------------|
E|-1 x16--/6 x16--|

VERSE 2
G|-----------------------------------5 x8-----------------------|
D|-5 x16--3 x16--1 x16--0 x16--5 x8--------3 x16--8 x29---------|
A|------------------------------------------------------8-8-9---|
E|--------------------------------------------------------------|

CHORUS

BRIDGE
G|------------------------------------------|
D|-5-5-5-----5-5-5-----5-5-5----------------|
A|-------------------------------6-6-6------|
E|------------------------------------------|

SOLO (AS VERSE 2)

CHORUS
	FINAL BAR:
G|------------------------------------|
D|------------------------------------|
A|--------/13-----13-----13\----------|
E|-1 x16--------------------------6---| END.

-----------------------------------------------------------------------------------

15. Ruled By Secrecy

VERSE
G|-----------------|
D|-----------------|
A|-8---7---6---3---| x2
E|-----------------|

CHORUS
G|------------------------------------------|
D|------------------------------------------|
A|-4---5---6---7---8---7-6-11---5---8---8---|
E|------------------------------------------|

VERSE
G|-----------------|
D|-----------------|
A|-8---7---6---3---| x2
E|-----------------|

CHORUS
G|----------------------------------|
D|----------------------------------|
A|-4---5---6---7---8---7-6-11---5---|
E|----------------------------------|

BRIDGE
G|-----------------|
D|-----------------|
A|-8-8-7-7-6-6-3-3-|  x2
E|-----------------|

CHORUS
G|-----------------------------------|
D|-----------------------------------|
A|-4-4-5-5-6-6-7-7-8-8-7-6-11-11-5-5-|
E|-----------------------------------|

OUTRO
G|---------------------------|
D|---------------------------|
A|-8-8-8-8-8-8-8-8-8-8---8---|
E|---------------------------| END.
comments
We did not receive enough feedback on this tab! Please rate:
print report bad tab
1 2 3 4 5
I want to post or [tab]
guest
You may want to rate the tab now too:
select rating
Please do not post tabs as comments. Select "correction" instead!