Oops, an error
Loading. Please wait.

Absolution Tab

by Muse
ver2
ver2

Album

More versions @911Tabs.com
16,150 views 21 this week
3 commentsread comments
1 2 3 4 5
accurate
x 13
add to favorites launch autoscroll
font size
0
reset
Autoscroll
+/-
esc
set tempo
stop
Contributor
WARNING: You are trying to view
                                    content from Ultimate-Guitar.com
                                    in an unauthorized application,
                                    which is prohibited.

                                    Please use an official Ultimate
                                    Guitar Tabs application for iPhone,
                                    iPad or Android to access legitimate
                                    chords, guitar, bass, and drum tabs
                                    from Ultimate-Guitar.com database.

                                    Type "ultimate guitar tabs" in Apple
                                    App Store's or Android Market's
                                    search to find the application.
Artist-Muse
Album-Absolution
Any comments, questions or queries then mail me at
ruled_by_secrecy_6@hotmail.com

Legend
PM-Palm Mute
TP-Tremolo Pick
b-Bend
h-Hammer-On
p-Pull-Off
\-Slide Down
/-Slide Up
~-Whammy Bar
x-Dead Note
v-Pick Scrape
*-Harmonics

1)Intro

2)Apocalypse Please
Piano

3)Time Is Running Out
Bass Intro
G|--------------------------|--------------------------|
D|--------------------------|--------------------------|
A|--------------------------|-----------------5--5--6--|
E|--5--5--8--5--5--8--8--5--|--7--7--5--7--7-----------|

G|--------------------------|--------------------------|
D|--------------------------|--------------------------|
A|--------7--------7--7-----|--------3--------5--5-----|
E|--0--0-----0--0--------0--|--1--1-----1--3--------3--|

The piano bit at the end of the verse is
e|--12-------11------------12-13-10------|
B|-----13-10----13-10-9-12-----------12--|
G|---------------------------------------|
D|---------------------------------------| x2
A|---------------------------------------|
E|---------------------------------------|

Pre Chorus
e|-----------------|-----------------|-----------------|-----------------|
B|-0-0-1-1-1-1-1-1-|-1-1-3-3-1-1-0-0-|-0-0-1-1-1-1-1-1-|-1-1-3-3-1-1-0-0-|
G|-2-2-2-2-2-2-2-2-|-0-0-0-0-0-0-0-0-|-2-2-2-2-2-2-2-2-|-0-0-0-0-0-0-0-0-|
D|-3-3-3-3-3-3-3-3-|-0-0-0-0-0-0-0-0-|-2-2-2-2-2-2-2-2-|-2-2-2-2-2-2-2-2-|
A|-----------------|-----------------|-----------------|-----------------|
E|-----------------|-----------------|-----------------|-----------------|
PM All

e|-----------------|-----------------|-----------------|----------------------|
B|-0-0-1-1-1-1-1-1-|-1-1-3-3-1-1-0-0-|-0-0-1-1-1-1-1-1-|----------------------|
G|-2-2-2-2-2-2-2-2-|-0-0-0-0-0-0-0-0-|-2-2-2-2-2-2-2-2-|----14-14-10-10-9-9---|
D|-3-3-3-3-3-3-3-3-|-0-0-0-0-0-0-0-0-|-2-2-2-2-2-2-2-2-|-10-x--x--x--x--x-x---|
A|-----------------|-----------------|-----------------|-10-12-12-8--8--7-7---|
E|-----------------|-----------------|-----------------|-8--------------------|
Gradually release the PM <----------------------------------------------------|

Chorus
e|----------------------|-------------------------|---------------|--------------------|
B|----------------------|-------------------------|-6-6-6-5-5-5-5-|--------------------|
G|-9--9--9--10-10-10-10-|-10-10-7--7--9--9--10-10-|-5-5-5-5-5-5-5-|----14-14-10-10-9-9-|
D|-10-10-10-10-10-10-10-|-10-10-10-10-10-10-10-10-|-7-7-7-7-7-7-7-|-10-x--x--x--x--x-x-|
A|-8--8--8--8--8--8--8--|-10-10-10-10-10-10-10-10-|-7-7-7-7-7-7-7-|-10-12-12-8--8--7-7-|
E|-8--8--8--8--8--8--8--|-------------------------|-5-5-5-5-5-5-5-|-8------------------|

e|----------------------|-------------------------|---------------|------------------|
B|----------------------|-------------------------|-6-6-6-5-5-5-5-|------------------|
G|-9--9--9--10-10-10-10-|-10-10-7--7--9--9--10-10-|-5-5-5-5-5-5-5-|------------------|
D|-10-10-10-10-10-10-10-|-10-10-10-10-10-10-10-10-|-7-7-7-7-7-7-7-|------------------|
A|-8--8--8--8--8--8--8--|-10-10-10-10-10-10-10-10-|-7-7-7-7-7-7-7-|-----3-------5----|
E|-8--8--8--8--8--8--8--|-------------------------|-5-5-5-5-5-5-5-|-1-1---1-3-3---3--|

Solo
e|-12------8---5---|-11------8---5---|-4-------9---12--|-13------10--7---|
B|-x-------x---x---|-x-------x---x---|-x-------x---x---|-x-------x---x---|
G|-9-------5---2---|-8-------5---2---|-1-------4---9---|-10------7---4---|
D|-----------------|-----------------|-----------------|-----------------|
A|-----------------|-----------------|-----------------|-----------------|
E|-----------------|-----------------|-----------------|-----------------|
TP all the notes

Verse 2
e|----------------|----------------|----------------|-----------------|
B|----------------|----------------|----------------|-----------------|
G|----------------|----------------|----------------|-----------------|
D|----------------|----------------|----------------|-----------------| x3
A|-----3----------|----------------|-----7----------|-----3-------5---|
E|-5-5---5--------|-7-7-5-7--------|-0-0---0--------|-1-1---1-3-3---3-|

Pre Chorus 2
e|-----------------|-----------------|-----------------|-----------------|
B|-0-0-1-1-1-1-1-1-|-1-1-3-3-1-1-0-0-|-0-0-1-1-1-1-1-1-|-1-1-3-3-1-1-0-0-|
G|-2-2-2-2-2-2-2-2-|-0-0-0-0-0-0-0-0-|-2-2-2-2-2-2-2-2-|-0-0-0-0-0-0-0-0-|
D|-3-3-3-3-3-3-3-3-|-0-0-0-0-0-0-0-0-|-2-2-2-2-2-2-2-2-|-2-2-2-2-2-2-2-2-|
A|-----------------|-----------------|-----------------|-----------------|
E|-----------------|-----------------|-----------------|-----------------|

e|-----------------|-----------------|-----------------|--------------------|
B|-0-0-1-1-1-1-1-1-|-1-1-3-3-1-1-0-0-|-0-0-1-1-1-1-1-1-|--------------------|
G|-2-2-2-2-2-2-2-2-|-0-0-0-0-0-0-0-0-|-2-2-2-2-2-2-2-2-|----14-14-10-10-9-9-|
D|-3-3-3-3-3-3-3-3-|-0-0-0-0-0-0-0-0-|-2-2-2-2-2-2-2-2-|-10-x--x--x--x--x-x-|
A|-----------------|-----------------|-----------------|-10-12-12-8--8--7-7-|
E|-----------------|-----------------|-----------------|-8------------------|

Chorus
e|----------------------|-------------------------|---------------|--------------------|
B|----------------------|-------------------------|-6-6-6-5-5-5-5-|--------------------|
G|-9--9--9--10-10-10-10-|-10-10-7--7--9--9--10-10-|-5-5-5-5-5-5-5-|----14-14-10-10-9-9-|
D|-10-10-10-10-10-10-10-|-10-10-10-10-10-10-10-10-|-7-7-7-7-7-7-7-|-10-x--x--x--x--x-x-|
A|-8--8--8--8--8--8--8--|-10-10-10-10-10-10-10-10-|-7-7-7-7-7-7-7-|-10-12-12-8--8--7-7-|
E|-8--8--8--8--8--8--8--|-------------------------|-5-5-5-5-5-5-5-|-8------------------|

e|----------------------|-------------------------|---------------|--------------------|
B|----------------------|-------------------------|-6-6-6-5-5-5-5-|--------------------|
G|-9--9--9--10-10-10-10-|-10-10-7--7--9--9--10-10-|-5-5-5-5-5-5-5-|----14-14-10-10-9-9-|
D|-10-10-10-10-10-10-10-|-10-10-10-10-10-10-10-10-|-7-7-7-7-7-7-7-|-10-x--x--x--x--x-x-|
A|-8--8--8--8--8--8--8--|-10-10-10-10-10-10-10-10-|-7-7-7-7-7-7-7-|-10-12-12-8--8--7-7-|
E|-8--8--8--8--8--8--8--|-------------------------|-5-5-5-5-5-5-5-|-8------------------|

Bridge
e|-1-1-1-1-1-1-1-0-|-0-0-0-0-0-0-0-0-|-1-1-1-1-1-1-1-0-|-0-0-0-0-0-0-0-0-|
B|-3-3-3-3-3-3-3-0-|-1-1-1-1-1-1-1-0-|-3-3-3-3-3-3-3-0-|-1-1-1-1-1-1-1-0-|
G|-2-2-2-2-2-2-2-0-|-2-2-2-2-2-2-2-0-|-2-2-2-2-2-2-2-0-|-2-2-2-2-2-2-2-0-|
D|-0-0-0-0-0-0-0-0-|-2-2-2-2-2-2-2-0-|-0-0-0-0-0-0-0-0-|-2-2-2-2-2-2-2-0-|
A|---------------0-|-0-0-0-0-0-0-0-0-|---------------0-|-0-0-0-0-0-0-0-0-|
E|-----------------|-----------------|-----------------|-----------------|

e|-1-1-1-1-1-1-1-0-|-0-0-0-0-0-0-0-0-|-----0-0-----0-0-|-----0-0-----0-0-|
B|-3-3-3-3-3-3-3-0-|-1-1-1-1-1-1-1-0-|-----0-0-----0-0-|-----0-0-----0-0-|
G|-2-2-2-2-2-2-2-0-|-2-2-2-2-2-2-2-0-|-1-1-1-1-1-1-1-1-|-1-1-1-1-1-1-1-1-|
D|-0-0-0-0-0-0-0-0-|-2-2-2-2-2-2-2-0-|-2-2-2-2-2-2-2-2-|-2-2-2-2-2-2-2-2-|
A|---------------0-|-0-0-0-0-0-0-0-0-|-2-2-----2-2-----|-2-2-----2-2-----|
E|-----------------|-----------------|-0-0-----0-0-----|-0-0-----0-0-----|

Interlude
The bass plays the intro riff once and then the guitar kicks in with
e|-12----8--12----8--12----|-8--11----8--11----8--11-|
B|----10-------10-------10-|-------10-------10-------|
G|-------------------------|-------------------------|
D|-------------------------|-------------------------|
A|-------------------------|-------------------------|
E|-------------------------|-------------------------|

e|---7--10---7--10---7-|-8-------8--10----8--10-|
B|-9-------9-------9---|---10-12-------12-------|
G|---------------------|------------------------|
D|---------------------|------------------------| x2
A|---------------------|------------------------|
E|---------------------|------------------------|

On the second time there's an overdub of
e|--12-------11------------12-13-10------|
B|-----13-10----13-10-9-12-----------12--|
G|---------------------------------------|
D|---------------------------------------|
A|---------------------------------------|
E|---------------------------------------|

Outro
e|---------------|---------------|---------------|---------------|
B|---------------|---------------|---------------|---------------|
G|---------------|---------------|---------------|---------------|
D|-14------------|-13------------|-12------------|-10--------10\-|
A|-x-------------|-x-------------|-x-------------|-x---------x---|
E|-12------------|-11------------|-10------------|-8---------8\\-|
TP __              __              __              __

4)Sing For Absolution
Intro (Piano arranged for guitar)
e|-------------------------|--------------------------|
B|-6-----------------8-----|--6-----------------8-----|
G|-------------------------|--------------------------|
D|-------7-----8-----------|--------7-----8-----------|
A|-5--5-----5-----5-----5--|--5--5-----5-----5-----5--|
E|-------------------------|--------------------------|

e|-------------------------|--------------------------|
B|-6-----------------8-----|--6-----------------8-----|
G|-------------------------|--------------------------|
D|-------7-----8-----------|--------7-----8-----------|
A|-------------------------|--------------------------|
E|-6--6-----6-----6-----6--|--6--6-----6-----6-----6--|

e|-------------------------|--------------------------|
B|-5-----------------6-----|--5-----------------6-----|
G|-------------7-----------|--------------7-----------|
D|-------6-----------------|--------6-----------------|
A|-------------------------|--------------------------|
E|-0--0-----0-----0-----0--|--0--0-----0-----0-----0--|

e|-------------------------|--------------------------|
B|-5-----------------6-----|--5-----------------6-----|
G|-------------6-----------|--------------6-----------|
D|-------5-----------------|--------5-----------------|
A|-0--0-----0-----0-----0--|--0--0-----0-----0-----0--|
E|-------------------------|--------------------------|

Verse (Uses a delay and tremolo effect)
e|-----------------|-------------------|-----------------|
B|-6----------8----|-6------------8----|-6----------8----|
G|-----------------|-------------------|-----------------|
D|----7----8-------|----7----8---------|----7----8-------|
A|-----------------|-------------------|-----------------|
E|-----------------|-------------------|-----------------|

e|-----------------|-------------------|-----------------|
B|-6----------8----|-5------------6----|-5----------6----|
G|-----------------|---------7---------|-------7---------|
D|----7----8-------|----6--------------|----6------------|
A|-----------------|-------------------|-----------------|
E|-----------------|-------------------|-----------------|

e|-----------------|-----------------|    e|-------|
B|-5----------6----|-5-----------5---|    B|-------|
G|---------6-------|---------6-------|    G|-------|
D|----5------------|----5------------| x2 D|-------|
A|-----------------|-----------------|    A|-0-0-2-|
E|-----------------|-----------------|    E|-------|

e|-----------------0-------------0-|---------0---------------3-------|
B|---------1---------1-----1-------|-------1---1-----------1---1---1-|
G|-----0-----0---0-------0---2-----|-----0-------0-------0-------0---|
D|---2---2-----2-------2-------0---|---2-----------2---2-------------|
A|-3-------------------------------|-3---------------3---------------|
E|---------------------------------|---------------------------------|

e|---------3-------3-------3-------|---------3-------3-------3-------|
B|-----3-----3---3---3---3---3---3-|-----3-----3---3---3---3---3---3-|
G|---3---3-----3-------3-------3---|---3---3-----3-------3-------3---|
D|---------------------------------|---------------------------------|
A|---------------------------------|---------------------------------|
E|-3-------------------------------|-3-------------------------------|

e|-----------------0-------------0-|---------0-------1-------3-------|
B|---------1---------1-----1-------|-------1---1-------1---1---1---1-|
G|-----0-----0---0-------0---2-----|-----0-------0-------0-------0---|
D|---2---2-----2-------2-------0---|---2-----------2-----------------|
A|-3-------------------------------|-3-------------------------------|
E|---------------------------------|---------------------------------|

e|---------3-------3-------3-------|-5-------5-------5-------5-------|
B|-----3-----3---3---3---3---3---3-|---3---3---3---3---3---3---3---3-|
G|---3---3-----3-------3-------3---|-----3-------3-------3-------3---|
D|---------------------------------|---------------------------------|
A|---------------------------------|---------------------------------|
E|-3-------------------------------|---------------------------------|

Solo
e|-----------------------------------------------------------------|
B|-----------------------------------------------------------------|
G|-----------------------------------------------------------------|
D|-----------------------------------------------------------------|
A|-5----5---7-8-\-1------7-8-\--------------7-8--------7-7--5\7----|
E|------------------------------4-----0----------------------------|

Last Chorus Lead
e|--------------|--------------|------------|--------------|
B|--------------|-8-----10-11--|-11---------|-11----10--11-|
G|-9------------|--------------|------------|--------------|
D|--------------|--------------|------------|--------------|
A|--------------|--------------|------------|--------------|
E|--------------|--------------|------------|--------------|
TP All Notes

e|--------------|--------------|------------|--------------|
B|-10------8----|-8-----10-11--|-11---------|-15-----------|
G|--------------|--------------|------------|--------------|
D|--------------|--------------|------------|--------------|
A|--------------|--------------|------------|--------------|
E|--------------|--------------|------------|--------------|

"Our wrongs remain unrectified"
e|--------------|--------------|------------|--------------|
B|--------------|--------------|------------|--------------|
G|--------------|--------------|------------|--------------|
D|-0------------|--------2--3--|-3----------|--------------|
A|--------------|--------------|------------|--------------|
E|--------------|--------------|------------|--------------|

   1/2 Bend gradually until the next note
e|--------------|--------------|------------|--------------|
B|--------------|--------------|------------|--------------|
G|--------------|--------------|------------|--------------|
D|-5b-----------|------------6-|-7----------|--------------|
A|--------------|--------------|------------|--------------|
E|--------------|--------------|------------|--------------|

5)Stockholm Syndrome
Main Riff
e|----------------------|---------------------|---------------------|-------------------|
B|----------------------|---------------------|---------------------|-------------------|
G|----------------------|---------------------|---------------------|-------------------|
D|----------------------|---------------------|---------------------|-------------------|
A|----------------------|---------------------|---------------------|-------------------|
D|-12-0-13-0-12-0-10-12-|-0-0-13-0-12-0-10-12-|-0-0-13-0-12-0-10-12-|-0-0-13-0-16h17p16-|

e|----------------------|---------------------|---------------------|---------------------------|
B|----------------------|---------------------|---------------------|---------------------------|
G|----------------------|---------------------|---------------------|---------------------------|
D|----------------------|---------------------|---------------------|---------------------------|
A|----------------------|---------------------|---------------------|---------------------------|
D|-12-0-13-0-12-0-10-12-|-0-0-13-0-12-0-10-12-|-0-0-13-0-12-0-10-12-|-0-3-3-3-3-0-3-3-3-0-3-3-3-|
Harm.                                                                   * * * *   * * *   * * *

Bass Enters
e|----------------------|---------------------|---------------------|-------------------|
B|----------------------|---------------------|---------------------|-------------------|
G|----------------------|---------------------|---------------------|-------------------|
D|----------------------|---------------------|---------------------|-------------------| x4
A|----------------------|---------------------|---------------------|-------------------|
D|-12-0-13-0-12-0-10-12-|-0-0-13-0-12-0-10-12-|-0-0-13-0-12-0-10-12-|-0-0-13-0-16h17p16-|

Verse (Play each Chord for a bar each)
e|-----|-----|-----|-----|-----|-----|-----|-----|
B|-----|-----|-----|-----|-----|-----|-----|-----|
G|--7--|--5--|--4--|--3--|--7--|--6--|--6--|--7--|
D|--x--|--x--|--x--|--x--|--x--|--x--|--x--|--x--|
A|--5--|--5--|--5--|--5--|--5--|--7--|--8--|--9--|
D|-----|-----|-----|-----|-----|-----|-----|-----|

e|------|-----|-----|-----|-----|-----|-----|-----|
B|------|-----|-----|-----|-----|-----|-----|-----|
G|--7---|--7--|--7--|--7--|--7--|--7--|--6--|--6--|
D|--8---|--7--|--5--|--5--|--5--|--5--|--5--|--5--| x2
A|--10--|--8--|--7--|--6--|--0--|--0--|--0--|--0--|
D|------|-----|-----|-----|-----|-----|-----|-----|

Chorus (On the second time through the chorus don't play the last bar but go straight to this part)
e|-----------|----------|
B|-----------|----------|
G|-----------|----------|
D|-x-x-5--4--|--3-------|
A|-x-x-5--4--|--3-(x16)-|
D|-x-x-5--4--|--3-------|

For the next bit the guitar is quieter and backed by piano arpeggios
Play each chord for a bar each
e|-----|-----|-----|-----|-----|-----|-----|-----|
B|-----|-----|-----|-----|-----|-----|-----|-----|
G|-----|-----|-----|-----|-----|-----|-----|-----|
D|--3--|--2--|--0--|--0--|--3--|--2--|--0--|--8--|
A|--3--|--2--|--0--|--0--|--3--|--2--|--0--|--8--|
D|--3--|--2--|--0--|--0--|--3--|--2--|--0--|--8--|

e|-------------------------------|
B|-------------------------------|
G|-------------------------------|
D|-3-3-3-3-6-6-6-6-7-7-7-7-10-11-|
A|-3-3-3-3-6-6-6-6-7-7-7-7-10-11-|
D|-3-3-3-3-6-6-6-6-7-7-7-7-10-11-|

e|----------------------|---------------------|-----------------------|
B|----------------------|---------------------|-----------------------|
G|----------------------|---------------------|-----------------------|
D|----------------------|---------------------|-----------------------|
A|----------------------|---------------------|-----------------------|
D|-12-0-13-0-12-0-10-12-|-0-0-13-0-12-0-10-12-|-0-3-0-3-0-3-0-3-0-0-3-|
Harm.                                             *   *   *   *     *

2nd Verse (same as first except play only once)

2nd Chorus (same as first but don't play the riff at the end, play this instead)
e|----------------------|---------------------|---------------------|-------------------|
B|----------------------|---------------------|---------------------|-------------------|
G|----------------------|---------------------|---------------------|-------------------|
D|----------------------|---------------------|---------------------|-------------------|
A|----------------------|---------------------|---------------------|-------------------|
D|-12-0-13-0-12-0-10-12-|-0-0-13-0-12-0-10-12-|-0-0-13-0-12-0-10-12-|-0-0-13-0-16h17p16-|

e|----------------------|---------------------|---------------------|---------------------------|
B|----------------------|---------------------|---------------------|---------------------------|
G|----------------------|---------------------|---------------------|---------------------------|
D|----------------------|---------------------|---------------------|---------------------------|
A|----------------------|---------------------|---------------------|---------------------------|
D|-12-0-13-0-12-0-10-12-|-0-0-13-0-12-0-10-12-|-0-0-13-0-12-0-10-12-|-0-3-3-3-3-0-3-3-3-0-3-3-3-|
Harm.                                                                   * * * *   * * *   * * *

I think Matt uses a flanger for this next part.
e|----------------------|---------------------|---------------------|---------------------|
B|----------------------|---------------------|---------------------|---------------------|
G|----------------------|---------------------|---------------------|---------------------|
D|----------------------|---------------------|---------------------|---------------------|
A|----------------------|---------------------|---------------------|---------------------|
D|-12-0-13-0-12-0-10-12-|-0-0-13-0-12-0-10-12-|-0-0-13-0-12-0-10-12-|-0-0-13-0-12-0-10-12-|

e|----------------------|---------------------|---------------------|---------------------|
B|----------------------|---------------------|---------------------|---------------------|
G|----------------------|---------------------|---------------------|---------------------|
D|----------------------|---------------------|---------------------|---------------------|
A|----------------------|---------------------|---------------------|---------------------|
D|-0-0-13-0-12-0-10-12--|-0-0-13-0-12-0-10-12-|-0-0-13-0-12-0-10-12-|-0-0-13-0-12-0-10-12-|

e|----------------------|---------------------|---------------------|---------------------|
B|----------------------|---------------------|---------------------|---------------------|
G|----------------------|---------------------|---------------------|---------------------|
D|----------------------|---------------------|---------------------|---------------------|
A|----------------------|---------------------|---------------------|---------------------|
D|-0-0-13-0-12-0-10-12--|-0-0-13-0-12-0-10-12-|-0-0-13-0-12-0-10-12-|-0-0-13-0-12-0-10-12-|

e|----------------------|---------------------|---------------------|---------------------|
B|----------------------|---------------------|---------------------|---------------------|
G|----------------------|---------------------|---------------------|---------------------|
D|----------------------|---------------------|---------------------|---------------------|
A|----------------------|---------------------|---------------------|---------------------|
D|-0-0-13-0-12-0-10-12--|-0-0-13-0-12-0-10-12-|-0-0-13-0-12-0-10-12-|-0-0-13-0-12-0-10-12-|

The next part is really tricky
e|-------------------------------------------------|-------------------------------------------------|
B|-------------------------------------------------|-------------------------------------------------|
G|-------------------------------------------------|-------------------------------------------------|
D|-------------------------------------------------|-------------------------------------------------|
A|-13-13-10-10-------13-13-10-10-------13-13-10-10-|-12-12-------------12-12-------------12-12-------|
D|-------------12-12-------------12-12-------------|-------15-15-12-12-------15-15-12-12-------15-15-|

e|---------------------------------------------|---------------------------------------------|
B|---------------------------------------------|---------------------------------------------|
G|---------------------------------------------|---------------------------------------------|
D|---------------------------------------------|---------------------------------------------|
A|-10-10-----------10-10-----------10-10-------|-10-10-----------10-10-----------10-10-------|
D|-------14-14-0-0-------14-14-0-0-------14-14-|-------13-13-0-0-------13-13-0-0-------13-13-|

e|----------------------|---------------------|---------------------|
B|----------------------|---------------------|---------------------|
G|----------------------|---------------------|---------------------|
D|----------------------|---------------------|---------------------|
A|-12-0-13-0-12-0-10-12-|-0-0-13-0-12-0-10-12-|-0-0-13-0-12-0-10-12-|
D|----------------------|---------------------|---------------------|

e|---------------------|---------------------|---------------------|
B|---------------------|---------------------|---------------------|
G|---------------------|---------------------|---------------------|
D|---------------------|---------------------|---------------------|
A|-0-0-13-0-12-0-10-12-|-0-0-13-0-12-0-10-12-|-0-0-13-0-12-0-10-12-|
D|---------------------|---------------------|---------------------|

Flanger off
  e|----------------|
  B|----------------|
  G|----------------|
  D|----------5--4--|
  A|----------5--4--|
  D|-9-9-9-9--5--4--|
Harm.* * * *

Straight to chorus

Outro
e|----------------------|---------------------|---------------------|--------------------|
B|----------------------|---------------------|---------------------|--------------------|
G|----------------------|---------------------|---------------------|--------------------|
D|-12-0-13-0-12-0-10-12-|-0-0-13-0-12-0-10-12-|-0-0-13-0-12-0-10-12-|--0-0-13-0-12\------|
A|-12-0-13-0-12-0-10-12-|-0-0-13-0-12-0-10-12-|-0-0-13-0-12-0-10-12-|--0-0-13-0-12\------|
D|-12-0-13-0-12-0-10-12-|-0-0-13-0-12-0-10-12-|-0-0-13-0-12-0-10-12-|--0-0-13-0-12\------|

e|----------------------|---------------------|---------------------|---------------------|
B|----------------------|---------------------|---------------------|---------------------|
G|----------------------|---------------------|---------------------|---------------------|
D|-12-0-13-0-12-0-10-12-|-0-0-13-0-12-0-10-12-|-0-0-13-0-12-0-10-12-|-0-0-13-0-12-0-10-12-|
A|-12-0-13-0-12-0-10-12-|-0-0-13-0-12-0-10-12-|-0-0-13-0-12-0-10-12-|-0-0-13-0-12-0-10-12-|
D|-12-0-13-0-12-0-10-12-|-0-0-13-0-12-0-10-12-|-0-0-13-0-12-0-10-12-|-0-0-13-0-12-0-10-12-|

e|-------------|
B|-------------|
G|-------------|
D|-0-----------|
A|-0-let ring--|
D|-0-----------|

6)Falling Away With You

e|-------8-------8-----------8----------8---------8------------8------------8----------8--------------|
B|----------------------------------------------------------------------------------------------------|
G|--5-------5--------5------------5---------5----------5-------------5-----------5--------------------|
D|----------------------------------------------------------------------------------------------------|
A|----------------------------------------------------------------------------------------------------|
E|----------------------------------------------------------------------------------------------------|

Verse 1 ( X4 )
e|--------------------|--------------------------------------------------------------|---------------|
B|-5---6-----8--------|-----------13---------------12---------10--------10-----------|-10--8---6-----|
G|--------------------|--------------------------------------------------------------|---------------|
D|--------------------|--------------------------------------------------------------|---------------|
A|-3---5-----7--------|----/-12--------12----10-------10-----8----8--------8---------|--8---7---5----|
E|--------------------|--------------------------------------------------------------|---------------|

e|--------------------------------------------------------------------------1-----------------------|
B|-5--------5----------------------------------------5----3----1------------1------3-/-5-------5----|
G|--------------------------------------------------------------------------------2-----------------|
D|---------------------4----4----5--------5---------------------------------------------------------|
A|-3---3-------3-------------------------------------3----2----0--0-------------------------3-----3-|
E|---------------------3----4----5-----5-----5------------------------------------------------------|

Chorus Chords
   A) x 0 2 2 2 0

Dm/A) x x 0 2 3 1

   F) 1 3 3 2 1 1

   G) 3 2 0 0 3 3

   C) x 3 2 0 1 0

|--A--|--A--|--Dm/A--|--Dm/A----------------------------------|
|--A--|--A--|--Dm/A--|--Dm/A----------------------------------|
|--A--|--A--|--Dm/A--|--Dm/A----------------------------------|
|--A--|--A--|--Am--|--Am--|--F--|--F--|--G--|--G--|--C---C----|

Verse 2 ( X4)
e|---------------------------------------------------------------------------------------------|
B|---------------------------------------------------------------------------------------------|
G|---------------------------------------------------------------------------------------------|
D|-2--3--5-----10--10-----9---9-----7------7---------7---5---3--------2--2---------------------|
A|-3--5--7-----12--12----10--10----8---8----8--------8---7---5--------3--3------2---2--3-----5-|
E|-----------------------------------------------------------------------------3--4--5---3---3-|

e|------------------------------------------------------|
B|-------------------------------5----3-----------------|
G|-------------------2-----2-------------------------5--|
D|-2---2---2--------3----3----2----0----------------2---|
A|-3---2---0----------------------------------------3---|
E|-------------------1----------------------------------|

7)Interlude
Use loads of distortion and tremolo pick everything

Guitar 1
|---------|---------------|-------------|-----|-----------------|
|---------|---------------|-------------|-----|-----------------|
|---------|---------------|-------------|-----|-----------------|
|-7-------|-7---6---9-----|--10---9---7-|-7---|--7-------6--7---|
|---------|---------------|-------------|-----|-----------------|
|---------|---------------|-------------|-----|-----------------|

Guitar 2
|---------|----------------|------------|-----|-----------------|
|---------|----------------|------------|-----|-----------------|
|---------|----------------|------------|-----|-----------------|
|---------|----------------|------------|-----|-----------------|
|---------|----------------|------------|-----|-----------------|
|-1-------|-0--------------|--5---------|--1--|--10-------------|

Guitar 1
|------------|---------|-----------|-------|
|------------|---------|-----------|-------|
|------------|---------|-----------|-------|
|-7------6---|-7-------|--7--------|---7---|
|------------|---------|-----------|-------|
|------------|---------|-----------|-------|

Guitar 2
|------------|---------|-----------|-----|
|------------|---------|-----------|-----|
|------------|---------|-----------|-----|
|------------|---------|-----------|-----|
|------------|---------|-----------|-----|
|-0----------|-5---4-5-|-5---4-5-5-|--5--|

8)Hysteria
Bass Intro
G|-------------------------------------|
D|-------------------------------------|
A|-0-0-10-0-10-12-0-10-0-7-0-8-8-7-5-7-|
E|-------------------------------------|

G|------------------------------------------|
D|------------------------------------------|
A|------------------------------------------|
E|-0-0-10-0-10-12-0-15-0-12-0-15-15-0-15-17-|

G|--------------------------------------|------------------------------------|
D|-0-0-10-0-10-12-0-10-0-10-9-0-9-8-0-8-|7-----------------------------------|
A|--------------------------------------|--0-10-0-10-12-0-10-0-7-0-8-8-7-5-7-|
E|--------------------------------------|------------------------------------|

Pick Scrape During Intro - This is just a basic guide, Matt does it differently everytime.
The v's are where you scratch from down to the next note.
e|-----------------------------------------------------|
B|-----------------------------------------------------|
G|-----------------------------------------------------|
D|-----------------------------------------------------|
A|-----------------------------------------------------|
E|-6vvvvvvvvvv7vvvvvvvvvvvv8vvvvvvvvvv10vvvvvvvvvv22vv-|

e|-------------------------------------------------------------|
B|----------------------12b12-10----------------------12b12-10-|
G|-14--14-14-14-14-14-------------13--13-13-13-13-13-----------|
D|-x---x--x--x--x--x--------------x---x--x--x--x--x------------|
A|-12--12-12-12-12-12-------------11--11-11-11-11-11-----------|
E|-------------------------------------------------------------|

e|------------------------------------------------------------|
B|---------------------12b12-10----------------12b12-12b12-12-|
G|-10--10-10-10-10-10------------9--9-9-9-9-9-----------------|
D|--x---x--x--x--x--x------------x--x-x-x-x-x-----------------|
A|--8---8--8--8--8--8------------7--7-7-7-7-7-----------------|
E|------------------------------------------------------------| x2

The verse is just bass, at the end before the chorus, this chord is muted

e|---------------------------------|
B|---------------------------------|
G|---------------------------------|
D|---------------------------------|
A|-7-7-7-7-7-7-7-7-7-7-7-7-7-7-7-7-|
E|-5-5-5-5-5-5-5-5-5-5-5-5-5-5-5-5-|

For the chorus play this

e|---------------------------------------------------------|
B|---------------------------------------------------------|
G|-5-5-5-5-5-5---5-5-5-5-5-5-5-----------------------------|
D|-5-5-5-5-5-5---5-5-5-5-5-5-5-5-5-5-5-5-5---5-5-5-5-5-5-5-|
A|-3-3-3-3-3-3-3-3-3-3-3-3-3-3-5-5-5-5-5-5---5-5-5-5-5-5-5-|
E|-----------------------------3-3-3-3-3-3-3-3-3-3-3-3-3-3-|

e|----------------------------------------------------------|
B|----------------------------------------------------------|
G|-7-7-7-7-7-7---7-7-7-7-7-7-7------------------------------|
D|-7-7-7-7-7-7---7-7-7-7-7-7-7-7-7-7-7-7-7---7-7-7-7-7-7-7--|
A|-5-5-5-5-5-5-5-5-5-5-5-5-5-5-7-7-7-7-7-7---7-7-7-7-7-7-7--|
E|-----------------------------5-5-5-5-5-5-5-5-5-5-5-5-5-5--| x2

Then play the main riff once.

The verse is the same but with the muted chords at the end mess around with them a bit, taking the mute
on and off

Then the chorus again

Nice big slide into
e|----------------------------------------|
B|----------------------------------------|
G|----------------------------------------|
D|----------------------------------------| x3
A|----------------------------------------|
E|-7-0-10-0-10-12-0-10-0-10-9-0-9-8-0-8-7-|

Then on the fourth bar play
e|-----------------------------------------|
B|-----------------------------------------|
G|-----------------------------------------|
D|-----------------------------------------|
A|-----------------------------------------|
E|-0-10-0-10-12-0-15-0-12-0-15-15-12-15-17-|

Solo!
e|-------12-12-------13-13------13-13-12-12----12-|
B|------------------------------------------------|
G|-14-14-------14-14-------14-14------------14----|
D|------------------------------------------------|
A|------------------------------------------------|
E|------------------------------------------------|

e|-------12-12-------13-13------13-13-12-12----12-|
B|------------------------------------------------|
G|-13-13-------13-13-------13-13------------13----|
D|------------------------------------------------|
A|------------------------------------------------|
E|------------------------------------------------|


e|-------13-13-------17-17------13-13-------12-12-------12-12-------13-13-|
B|------------------------------------------------------------------------|
G|-14-14-------14-14-------14-14------14-14-------14-14-------14-14-------|
D|------------------------------------------------------------------------|
A|------------------------------------------------------------------------|
E|------------------------------------------------------------------------|

e|-------13-13-12-12----12-|
B|-------------------------|
G|-14-14------------14-----|
D|-------------------------|
A|-------------------------|
E|-------------------------|

e|-------12-12-------13-13------13-13-12-12----12-|
B|------------------------------------------------|
G|-14-14-------14-14-------14-14------------14----|
D|------------------------------------------------|
A|------------------------------------------------|
E|------------------------------------------------|

e|-------12-12-------13-13------13-13-12-12----12-|
B|------------------------------------------------|
G|-13-13-------13-13-------13-13------------13----|
D|------------------------------------------------|
A|------------------------------------------------|
E|------------------------------------------------|

e|-------13-13-------17-17------13-13-------12-12-|
B|------------------------------------------------|
G|-14-14-------14-14-------14-14------14-14-------|
D|------------------------------------------------|
A|------------------------------------------------|
E|------------------------------------------------|

e|-12----------------------------------------------|
B|-------------15----------13----------12----------|
G|----14-14-14-------------------------------------|
D|----------------15-15-15----14-14-14----12-12-12-|
A|-------------------------------------------------|
E|-------------------------------------------------|

Part Two
e|-----------------------------------------------------------------|
B|-13-------13-12-----12-------12-12-13-15-------15-13-12-13-------|
G|----12----------14-----12----------------14----------------14----|
D|-------14-----------------12----------------15----------------14-|
A|-----------------------------------------------------------------|
E|-----------------------------------------------------------------|

e|------------------------------------------------------------------------|
B|-15-13-12-13-------12b12-10-12--------12-12-13b----15-15-13-12-13-------|
G|-------------12----------------12---------------------------------14----|
D|----------------14----------------12------------14-------------------14-|
A|------------------------------------------------------------------------|
E|------------------------------------------------------------------------|

Then back to the last chorus which is the same as the previous ones.

for the outro play this

e|----------------------------------------|
B|----------------------------------------|
G|----------------------------------------|
D|----------------------------------------| x6
A|----------------------------------------|
E|-7-0-10-0-10-12-0-10-0-10-9-0-9-8-0-8-7-|

9)Blackout
This is a strings piano/track, apart from the solo which is where the guitar kicks in.

e|--------------------------------------|--------------------------------------|
B|--------------------------------------|--------------------------------------|
G|-3\\\\7////2\\\\7////0\\\\8////2\\\\6-|-3----7----2----7----0----8----2----6-|
D|--------------------------------------|--------------------------------------|
A|--------------------------------------|--------------------------------------|
E|--------------------------------------|--------------------------------------|
TP All Notes

e|---------------------------------------------|---------------------------------|
B|---------------------------------------------|-15--------16----18----19--------|
G|-2----5----12----14----15----17----15--------|---------------------------------|
D|---------------------------------------------|---------------------------------|
A|---------------------------------------------|---------------------------------|
E|---------------------------------------------|---------------------------------|

e|----------------------------------------------|
B|-20----22---20----19--------15----------------|
G|----------------------------------------------|
D|----------------------------------------------|
A|----------------------------------------------|
E|----------------------------------------------|

10)Butterflies And Hurricanes
e|----------------------------------------------------------------|
B|----------------------------------------------------------------|
G|----------------------------------------------------------------|
D|----------------------------------------------------------------|
A|----------------------------------------------------------------|
D|-0-12-12-0-12-12.0.12.0.12.12.0-12-12-0-12-0-12-12-0-12-12-0-12-|

change
e|-------------------------------------------------------|
B|-------------------------------------------------------|
G|-------------------------------------------------------|
D|-------------------------------------------------------|
A|----17-17-17-17-17-17-17-17-17-17-17-17-17-17-17-17-17-|
D|----0--12-12-0--12-12-0--12.0--12-12-0--12-12-0--12-0--|

everything
e|-------------------------------------------------------|
B|-------------------------------------------------------|
G|-------------------------------------------------------|
D|-------------------------------------------------------|
A|----16-16-16-16-16-16-16-16-16-16-16-16-16-16-16-16-16-|
D|----0--12-12-0--12-12-0-12.-0--12-12-0--12-12-0--12-0--|

you are
e|-------------------------------------------------------|
B|-------------------------------------------------------|
G|-------------------------------------------------------|
D|-------------------------------------------------------|
A|---15--15-15-15-15-15-15-15-15-15-15-15-15-15-15-15-15-|
D|----0--12-12-0--12-12-0--12-0--12-12-0--12-12-0--12-0--|

and everything
e|-------------------------------------------------------|
B|-------------------------------------------------------|
G|-------------------------------------------------------|
D|-------------------------------------------------------|
A|----14-14-14-14-14-14-14-14-14-14-14-14-14-14-14-14-14-|
D|----0--12-12-0--12-12-0--12-0--12-12-0--12-12-0--12-0--|

you were
e|-------------------------------------------------------|
B|-------------------------------------------------------|
G|-------------------------------------------------------|
D|-------------------------------------------------------|
A|---13--13-13-13-13-13-13-13-13-13-13-13-13-13-13-13-13-|
D|----0--12-12-0--12-12-0--12-0--12.12-0--12-12-0--12-0--|

e|-------------------------------------------|
B|-------------------------------------------|
G|-------------------------------------------|
D|-------------------------------------------|
A|-------------------------------------------|
D|--12-12-12-11-11-11-10-10-10-9-9-9-8-8-7-7-|

your number has been
e|------------------------------------------------------------------|
B|------------------------------------------------------------------|
G|------------------------------------------------------------------|
D|------------------------------------------------------------------|
A|------------------------------------------------------------------|
D|--6-6-6-6-6-6-6-6-6-6-6-6-6-6-6-6-2-2-2-2-2-2-2-2-2-2-2-2-2-2-2-2-|

called
e|----------------------------------------------------------------------------------|
B|----------------------------------------------------------------------------------|
G|----------------------------------------------------------------------------------|
D|--7-7-7-7-7-7-7-7-7-7-7-7-8-8-8-8-11-11-11-11-11-11-11-11-11-11-11-11-11-11-11-11-|
A|--7-7-7-7-7-7-7-7-7-7-7-7-7-7-7-7--7--7--7--7--7--7--7--7--7--7--7--7--7--7--7--7-|
D|--7-7-7-7-7-7-7-7-7-7-7-7-7-7-7-7--7--7--7--7--7--7--7--7--7--7--7--7--7--7--7--7-|

fights
e|-------------------------------------------------------|
B|-------------------------------------------------------|
G|-------------------------------------------------------|
D|-------------------------------------------------------|
A|----17-17-17-17-17-17-17-17-17-17-17-17-17-17-17-17-17-|
D|----0--12-12-0--12-12-0-12-0--12-12-0--12-12-0--12-0---|

and battles have
e|-------------------------------------------------------|
B|-------------------------------------------------------|
G|-------------------------------------------------------|
D|-------------------------------------------------------|
A|---16--16-16-16-16-16-16-16-16-16-16-16-16-16-16-16-16-|
D|----0--12-12-0--12-12-0--12-0--12-12-0--12-12-0--12-0--|

begun
e|---------------------------------------------------------|
B|---------------------------------------------------------|
G|---------------------------------------------------------|
D|---------------------------------------------------------|
A|---15--15-15-15-15-15-15-15-15-15-15-15-15-15-15-15-15---|
D|----0--12-12-0--12-12-0--12-0--12-12-0--12-12-0--12-0----|

revenge will surely
e|-------------------------------------------------------|
B|-------------------------------------------------------|
G|-------------------------------------------------------|
D|-------------------------------------------------------|
A|----14-14-14-14-14-14-14-14-14-14-14-14-14-14-14-14-14-|
D|----0--12-12-0--12-12-0--12-0--12-12-0--12-12-0--12-0--|

come
e|-------------------------------------------------------|
B|-------------------------------------------------------|
G|-------------------------------------------------------|
D|-------------------------------------------------------|
A|---13--13-13-13-13-13-13-13-13-13-13-13-13-13-13-13-13-|
D|----0--12-12-0--12-12-0--12-0--12-12-0--12-12-0--12-0--|

e|-------------------------------------------|
B|-------------------------------------------|
G|-------------------------------------------|
D|-------------------------------------------|
A|-------------------------------------------|
D|--12-12-12-11-11-11-10-10-10-9-9-9-8-8-7-7-|

your hard times are
e|------------------------------------------------------------------|
B|------------------------------------------------------------------|
G|------------------------------------------------------------------|
D|------------------------------------------------------------------|
A|------------------------------------------------------------------|
D|--6-6-6-6-6-6-6-6-6-6-6-6-6-6-6-6-2-2-2-2-2-2-2-2-2-2-2-2-2-2-2-2-|

ahead
e|----------------------------------------------------------------------------------|
B|----------------------------------------------------------------------------------|
G|----------------------------------------------------------------------------------|
D|--7-7-7-7-7-7-7-7-7-7-7-7-8-8-8-8-11-11-11-11-11-11-11-11-11-11-11-11-11-11-11-11-|
A|--7-7-7-7-7-7-7-7-7-7-7-7-7-7-7-7--7--7--7--7--7--7--7--7--7--7--7--7--7--7--7--7-|
D|--7-7-7-7-7-7-7-7-7-7-7-7-7-7-7-7--7--7--7--7--7--7--7--7--7--7--7--7--7--7--7--7-|

best, you've got to
e|-----------------------------------------------------------------|
B|-----------------------------------------------------------------|
G|---------------------------------7-7-7-7-7-7-7-7-7-7-7-7-7-7-7-7-|
D|-8-8-8-8-8-8-8-8-8-8-8-8-8-8-8-8-7-7-7-7-7-7-7-7-7-7-7-7-7-7-7-7-|
A|-8-8-8-8-8-8-8-8-8-8-8-8-8-8-8-8-8-8-8-8-8-8-8-8-8-8-8-8-8-8-8-8-|
D|-8-8-8-8-8-8-8-8-8-8-8-8-8-8-8-8-0-0-0-0-0-0-0-0-0-0-0-0-0-0-0-0-|

be the best, you've got to
e|-----------------------------------------------------------------|
B|-----------------------------------------------------------------|
G|---------------------------------7-7-7-7-7-7-7-7-7-7-7-7-7-7-7-7-|
D|-8-8-8-8-8-8-8-8-8-8-8-8-8-8-8-8-7-7-7-7-7-7-7-7-7-7-7-7-7-7-7-7-|
A|-8-8-8-8-8-8-8-8-8-8-8-8-8-8-8-8-8-8-8-8-8-8-8-8-8-8-8-8-8-8-8-8-|
D|-8-8-8-8-8-8-8-8-8-8-8-8-8-8-8-8-0-0-0-0-0-0-0-0-0-0-0-0-0-0-0-0-|

change the world, and use this chance to be heard
e|---------------------------------------------------------------------------------|
B|---------------------------------------------------------------------------------|
G|---------------------------------------------------------------------------------|
D|-8-8-8-8-8-8-8-8-8-8-8-8-8-8-8-8-3-3-3-3-3-3-3-3-7-7-7-7-7-7-7-7-8-8-8-8-8-8-8-8-|
A|-8-8-8-8-8-8-8-8-8-8-8-8-8-8-8-8-3-3-3-3-3-3-3-3-4-4-4-4-4-4-4-4-5-5-5-5-5-5-5-5-|
D|-8-8-8-8-8-8-8-8-8-8-8-8-8-8-8-8-3-3-3-3-3-3-3-3-4-4-4-4-4-4-4-4-5-5-5-5-5-5-5-5-|

your time is
e|-----------------------------------------------------------------|
B|-----------------------------------------------------------------|
G|-----------------------------------------------------------------|
D|-8-8-8-8-8-8-8-8-8-8-8-8-8-8-8-8-3-3-3-3-3-3-3-3-3-3-3-3-3-3-3-3-|
A|-8-8-8-8-8-8-8-8-8-8-8-8-8-8-8-8-3-3-3-3-3-3-3-3-3-3-3-3-3-3-3-3-|
D|-8-8-8-8-8-8-8-8-8-8-8-8-8-8-8-8-3-3-3-3-3-3-3-3-3-3-3-3-3-3-3-3-|

your time is(now)
e|-----------------------------------------------------------------|
B|-----------------------------------------------------------------|
G|-----------------------------------------------------------------|
D|-8-8-8-8-8-8-8-8-8-8-8-8-8-8-8-8-3-3-3-3-3-3-3-3-3-3-3-3-3-3-3-3-|
A|-8-8-8-8-8-8-8-8-8-8-8-8-8-8-8-8-3-3-3-3-3-3-3-3-3-3-3-3-3-3-3-3-|
D|-8-8-8-8-8-8-8-8-8-8-8-8-8-8-8-8-3-3-3-3-3-3-3-3-3-3-3-3-3-3-3-3-|

now
e|-----------------------------------------------------------------|
B|-----------------------------------------------------------------|
G|-----------------------------------------------------------------|
D|-8-8-8-8-8-8-8-8-8-8-8-8-8-8-8-8-8-8-8-8-8-8-8-8-8-8-8-8-8-8-8-8-|
A|-7-7-7-7-7-7-7-7-7-7-7-7-7-7-7-7-7-7-7-7-7-7-7-7-7-7-7-7-7-7-7-7-|
D|-7-7-7-7-7-7-7-7-7-7-7-7-7-7-7-7-7-7-7-7-7-7-7-7-7-7-7-7-7-7-7-7-|

e|-------------------------------------------------------------------------|
B|-------------------------------------------------------------------------|
G|-------------------------------------------------------------------------|
D|---7-x-x-/14-x-x-11-x-x-8-x-x-5-x-8-x-7-x-x-/14-x-x-11-x-x-8-x-x-5-x-11x-|
A|---7-x-x-/14-x-x-11-x-x-8-x-x-5-x-8-x-7-x-x-/14-x-x-11-x-x-8-x-x-5-x-11x-|
D|---7-x-x-/14-x-x-11-x-x-8-x-x-5-x-8-x-7-x-x-/14-x-x-11-x-x-8-x-x-5-x-11x-|

change
e|-------------------------------------------------------|
B|-------------------------------------------------------|
G|-------------------------------------------------------|
D|----12-12-12-12-12-12-12-12-12-12-12-12-12-12-12-12-12-|
A|----17-17-17-17-17-17-17-17-17-17-17-17-17-17-17-17-17-|
D|----0--0--0--0--0--0--0--0--0--0--0--0--0--0--0--0--0--|

everything
e|-------------------------------------------------------|
B|-------------------------------------------------------|
G|-------------------------------------------------------|
D|----12-12-12-12-12-12-12-12-12-12-12-12-12-12-12-12-12-|
A|----16-16-16-16-16-16-16-16-16-16-16-16-16-16-16-16-16-|
D|----0--0--0--0--0--0--0--0--0--0--0--0--0--0--0--0--0--|

you are
e|-------------------------------------------------------|
B|-------------------------------------------------------|
G|-------------------------------------------------------|
D|----12-12-12-12-12-12-12-12-12-12-12-12-12-12-12-12-12-|
A|----15-15-15-15-15-15-15-15-15-15-15-15-15-15-15-15-15-|
D|----0--0--0--0--0--0--0--0--0--0--0--0--0--0--0--0--0--|

and everything
e|-------------------------------------------------------|
B|-------------------------------------------------------|
G|-------------------------------------------------------|
D|----12-12-12-12-12-12-12-12-12-12-12-12-12-12-12-12-12-|
A|----14-14-14-14-14-14-14-14-14-14-14-14-14-14-14-14-14-|
D|----0--0--0--0--0--0--0--0--0--0--0--0--0--0--0--0--0--|

you were
e|-------------------------------------------------------|
B|-------------------------------------------------------|
G|-------------------------------------------------------|
D|----12-12-12-12-12-12-12-12-12-12-12-12-12-12-12-12-12-|
A|----13-13-13-13-13-13-13-13-13-13-13-13-13-13-13-13-13-|
D|----0--0--0--0--0--0--0--0--0--0--0--0--0--0--0--0--0--|

e|-------------------------------------|
B|-------------------------------------|
G|-------------------------------------|
D|-------------------------------------|
A|-------------------------------------|
D|--12-0-0-11-0-0-10-0-0-9-0-0-8-0-7-0-|

your number has been called
e|------------------------------------------------------------------|
B|------------------------------------------------------------------|
G|------------------------------------------------------------------|
D|--6-6-6-6-6-6-6-6-6-6-6-6-6-6-6-6-2-2-2-2-2-2-2-2-2-2-2-2-2-2-2-2-|
A|--6-6-6-6-6-6-6-6-6-6-6-6-6-6-6-6-2-2-2-2-2-2-2-2-2-2-2-2-2-2-2-2-|
D|--6-6-6-6-6-6-6-6-6-6-6-6-6-6-6-6-2-2-2-2-2-2-2-2-2-2-2-2-2-2-2-2-|

e|----------------------------------------------------------------------------------|
B|----------------------------------------------------------------------------------|
G|----------------------------------------------------------------------------------|
D|--7-7-7-7-7-7-7-7-7-7-7-7-8-8-8-8-11-11-11-11-11-11-11-11-11-11-11-11-11-11-11-11-|
A|--7-7-7-7-7-7-7-7-7-7-7-7-7-7-7-7--7--7--7--7--7--7--7--7--7--7--7--7--7--7--7--7-|
D|--7-7-7-7-7-7-7-7-7-7-7-7-7-7-7-7--7--7--7--7--7--7--7--7--7--7--7--7--7--7--7--7-|

fights
e|-------------------------------------------------------|
B|-------------------------------------------------------|
G|-------------------------------------------------------|
D|----12-12-12-12-12-12-12-12-12-12-12-12-12-12-12-12-12-|
A|----17-17-17-17-17-17-17-17-17-17-17-17-17-17-17-17-17-|
D|----0--0--0--0--0--0--0--0--0--0--0--0--0--0--0--0--0--|

and battles have
e|-------------------------------------------------------|
B|-------------------------------------------------------|
G|-------------------------------------------------------|
D|----12-12-12-12-12-12-12-12-12-12-12-12-12-12-12-12-12-|
A|----16-16-16-16-16-16-16-16-16-16-16-16-16-16-16-16-16-|
D|----0--0--0--0--0--0--0--0--0--0--0--0--0--0--0--0--0--|

begun
e|-------------------------------------------------------|
B|-------------------------------------------------------|
G|-------------------------------------------------------|
D|----12-12-12-12-12-12-12-12-12-12-12-12-12-12-12-12-12-|
A|----15-15-15-15-15-15-15-15-15-15-15-15-15-15-15-15-15-|
D|----0--0--0--0--0--0--0--0--0--0--0--0--0--0--0--0--0--|

revenge will surely
e|-------------------------------------------------------|
B|-------------------------------------------------------|
G|-------------------------------------------------------|
D|----12-12-12-12-12-12-12-12-12-12-12-12-12-12-12-12-12-|
A|----14-14-14-14-14-14-14-14-14-14-14-14-14-14-14-14-14-|
D|----0--0--0--0--0--0--0--0--0--0--0--0--0--0--0--0--0--|

come
e|-------------------------------------------------------|
B|-------------------------------------------------------|
G|-------------------------------------------------------|
D|----12-12-12-12-12-12-12-12-12-12-12-12-12-12-12-12-12-|
A|----13-13-13-13-13-13-13-13-13-13-13-13-13-13-13-13-13-|
D|----0--0--0--0--0--0--0--0--0--0--0--0--0--0--0--0--0--|

e|-------------------------------------------------------|
B|-------------------------------------------------------|
G|-------------------------------------------------------|
D|----12-12-12-12-12-12-12-12-12-12-12-12-12-12-12-12-12-|
A|----12-12-12-12-12-12-12-12-12-12-12-12-12-12-12-12-12-|
D|----0--0--0--0--0--0--0--0--0--0--0--0--0--0--0--0--0--|

your hard times are ahead
e|------------------------------------------------------------------|
B|------------------------------------------------------------------|
G|------------------------------------------------------------------|
D|--6-6-6-6-6-6-6-6-6-6-6-6-6-6-6-6-2-2-2-2-2-2-2-2-2-2-2-2-2-2-2-2-|
A|--6-6-6-6-6-6-6-6-6-6-6-6-6-6-6-6-2-2-2-2-2-2-2-2-2-2-2-2-2-2-2-2-|
D|--6-6-6-6-6-6-6-6-6-6-6-6-6-6-6-6-2-2-2-2-2-2-2-2-2-2-2-2-2-2-2-2-|

e|----------------------------------------------------------------------------------|
B|----------------------------------------------------------------------------------|
G|----------------------------------------------------------------------------------|
D|--7-7-7-7-7-7-7-7-7-7-7-7-8-8-8-8-11-11-11-11-11-11-11-11-11-11-11-11-11-11-11-11-|
A|--7-7-7-7-7-7-7-7-7-7-7-7-7-7-7-7--7--7--7--7--7--7--7--7--7--7--7--7--7--7--7--7-|
D|--7-7-7-7-7-7-7-7-7-7-7-7-7-7-7-7--7--7--7--7--7--7--7--7--7--7--7--7--7--7--7--7-|

best, you've got to
e|-----------------------------------------------------------------|
B|-----------------------------------------------------------------|
G|---------------------------------7-7-7-7-7-7-7-7-7-7-7-7-7-7-7-7-|
D|-8-8-8-8-8-8-8-8-8-8-8-8-8-8-8-8-7-7-7-7-7-7-7-7-7-7-7-7-7-7-7-7-|
A|-8-8-8-8-8-8-8-8-8-8-8-8-8-8-8-8-8-8-8-8-8-8-8-8-8-8-8-8-8-8-8-8-|
D|-8-8-8-8-8-8-8-8-8-8-8-8-8-8-8-8-0-0-0-0-0-0-0-0-0-0-0-0-0-0-0-0-|

be the best, you've got to
e|-----------------------------------------------------------------|
B|-----------------------------------------------------------------|
G|---------------------------------7-7-7-7-7-7-7-7-7-7-7-7-7-7-7-7-|
D|-8-8-8-8-8-8-8-8-8-8-8-8-8-8-8-8-7-7-7-7-7-7-7-7-7-7-7-7-7-7-7-7-|
A|-8-8-8-8-8-8-8-8-8-8-8-8-8-8-8-8-8-8-8-8-8-8-8-8-8-8-8-8-8-8-8-8-|
D|-8-8-8-8-8-8-8-8-8-8-8-8-8-8-8-8-0-0-0-0-0-0-0-0-0-0-0-0-0-0-0-0-|

change the world and use this chance to be heard
e|---------------------------------------------------------------------------------|
B|---------------------------------------------------------------------------------|
G|---------------------------------------------------------------------------------|
D|-8-8-8-8-8-8-8-8-8-8-8-8-8-8-8-8-3-3-3-3-3-3-3-3-7-7-7-7-7-7-7-7-8-8-8-8-8-8-8-8-|
A|-8-8-8-8-8-8-8-8-8-8-8-8-8-8-8-8-3-3-3-3-3-3-3-3-4-4-4-4-4-4-4-4-5-5-5-5-5-5-5-5-|
D|-8-8-8-8-8-8-8-8-8-8-8-8-8-8-8-8-3-3-3-3-3-3-3-3-4-4-4-4-4-4-4-4-5-5-5-5-5-5-5-5-|

your time is
e|-----------------------------------------------------------------|
B|-----------------------------------------------------------------|
G|-----------------------------------------------------------------|
D|-8-8-8-8-8-8-8-8-8-8-8-8-8-8-8-8-3-3-3-3-3-3-3-3-3-3-3-3-3-3-3-3-|
A|-8-8-8-8-8-8-8-8-8-8-8-8-8-8-8-8-3-3-3-3-3-3-3-3-3-3-3-3-3-3-3-3-|
D|-8-8-8-8-8-8-8-8-8-8-8-8-8-8-8-8-3-3-3-3-3-3-3-3-3-3-3-3-3-3-3-3-|

your time is(now)
e|-----------------------------------------------------------------|
B|-----------------------------------------------------------------|
G|-----------------------------------------------------------------|
D|-8-8-8-8-8-8-8-8-8-8-8-8-8-8-8-8-3-3-3-3-3-3-3-3-3-3-3-3-3-3-3-3-|
A|-8-8-8-8-8-8-8-8-8-8-8-8-8-8-8-8-3-3-3-3-3-3-3-3-3-3-3-3-3-3-3-3-|
D|-8-8-8-8-8-8-8-8-8-8-8-8-8-8-8-8-3-3-3-3-3-3-3-3-3-3-3-3-3-3-3-3-|

now
e|-----------------------------------------------------------------|
B|-----------------------------------------------------------------|
G|-----------------------------------------------------------------|
D|-8-8-8-8-8-8-8-8-8-8-8-8-8-8-8-8-8-8-8-8-8-8-8-8-8-8-8-8-8-8-8-8-|
A|-7-7-7-7-7-7-7-7-7-7-7-7-7-7-7-7-7-7-7-7-7-7-7-7-7-7-7-7-7-7-7-7-|
D|-7-7-7-7-7-7-7-7-7-7-7-7-7-7-7-7-7-7-7-7-7-7-7-7-7-7-7-7-7-7-7-7-|

e|--------------------------------------------------------------------------|
B|--------------------------------------------------------------------------|
G|--------------------------------------------------------------------------|
D|---7-x-x-/14-x-x-11-x-x-8-x-x-5-x-8-x-7-x-x-/14-x-x-11-x-x-8-x-x-5-x-11-x-|
A|---7-x-x-/14-x-x-11-x-x-8-x-x-5-x-8-x-7-x-x-/14-x-x-11-x-x-8-x-x-5-x-11-x-|
D|---7-x-x-/14-x-x-11-x-x-8-x-x-5-x-8-x-7-x-x-/14-x-x-11-x-x-8-x-x-5-x-11-x-|

e|-------------------------------------------------------------------|
B|-------------------------------------------------------------------|
G|-------------------------------------------------------------------|
D|-------------------------------------------------------------------|
A|-------------------------------------------------------------------|
D|-0-0-0-0-0-0-0-0-0-0-0-0-0-0-0-0-0-0-0-0-0-0-0-0-0-0-0-0-0-0-0-0-0-|

(strum fast, according to rhythm so the bass note stays constant rate)
e|-------------------------------------------|
B|-------------------------------------------|
G|-------------------------------------------|
D|---19--------12-17--------19------12-17----|
A|---17--------10-18--------17------10-18----|
D|---0----------0--0--------0--------0--0----|

e|---------------------------------------------------------------------------------------------22-|
B|-------------------------------------------------------------------19---------19--------22------|
G|-20---------17------19------8-/14-----20---17---20---18---------19----19--------19--------------|
D|-20---------18------16------7/-13-----19---17---20---18------19-----------19--------19----------|
A|-18-----18--15------17------6/-12-----18---15---18---16---17------------------------------------|
D|-0-------0---0-------0------0--0-------0---0-----0----0----0------------------------------------|

(after piano)dont
e|-------------------------------------------------------|
B|-------------------------------------------------------|
G|-------------------------------------------------------|
D|-------------------------------------------------------|
A|----17-17-17-17-17-17-17-17-17-17-17-17-17-17-17-17-17-|
D|----0--12-12-0--12-12-0--12-0--12-12-0--12-12-0--12-0--|

let yourself
e|-------------------------------------------------------|
B|-------------------------------------------------------|
G|-------------------------------------------------------|
D|-------------------------------------------------------|
A|---16--16-16-16-16-16-16-16-16-16-16-16-16-16-16-16-16-|
D|----0--12-12-0--12-12-0--12-0--12-12-0--12-12-0--12-0--|

down
e|-------------------------------------------------------|
B|-------------------------------------------------------|
G|-------------------------------------------------------|
D|-------------------------------------------------------|
A|---15--15-15-15-15-15-15-15-15-15-15-15-15-15-15-15-15-|
D|----0--12-12-0--12-12-0--12-0--12-12-0--12-12-0--12-0--|

dont let yourself
e|------------------------------------------------------|
B|------------------------------------------------------|
G|------------------------------------------------------|
D|------------------------------------------------------|
A|---14-14-14-14-14-14-14-14-14-14-14-14-14-14-14-14-14-|
D|----0--12-12-0--12-12-0--12-0--12-12-0--12-12-0--12-0-|

go
e|--------------------------------------------------------|
B|--------------------------------------------------------|
G|--------------------------------------------------------|
D|--------------------------------------------------------|
A|---13--13-13-13-13-13-13-13-13-13-13-13-13-13-13-13-13--|
D|----0--12-12-0--12-12-0--12-0--12-12-0--12-12-0--12-0---|

e|-------------------------------------------|
B|-------------------------------------------|
G|-------------------------------------------|
D|-------------------------------------------|
A|-------------------------------------------|
D|--12-12-12-11-11-11-10-10-10-9-9-9-8-8-7-7-|

your last chance has arrived
e|------------------------------------------------------------------|
B|------------------------------------------------------------------|
G|------------------------------------------------------------------|
D|------------------------------------------------------------------|
A|------------------------------------------------------------------|
D|--6-6-6-6-6-6-6-6-6-6-6-6-6-6-6-6-2-2-2-2-2-2-2-2-2-2-2-2-2-2-2-2-|

e|----------------------------------------------------------------------------------|
B|----------------------------------------------------------------------------------|
G|----------------------------------------------------------------------------------|
D|--7-7-7-7-7-7-7-7-7-7-7-7-8-8-8-8-11-11-11-11-11-11-11-11-11-11-11-11-11-11-11-11-|
A|--7-7-7-7-7-7-7-7-7-7-7-7-7-7-7-7--7--7--7--7--7--7--7--7--7--7--7--7--7--7--7--7-|
D|--7-7-7-7-7-7-7-7-7-7-7-7-7-7-7-7--7--7--7--7--7--7--7--7--7--7--7--7--7--7--7--7-|

best, you've got to
e|-----------------------------------------------------------------|
B|-----------------------------------------------------------------|
G|---------------------------------7-7-7-7-7-7-7-7-7-7-7-7-7-7-7-7-|
D|-8-8-8-8-8-8-8-8-8-8-8-8-8-8-8-8-7-7-7-7-7-7-7-7-7-7-7-7-7-7-7-7-|
A|-8-8-8-8-8-8-8-8-8-8-8-8-8-8-8-8-8-8-8-8-8-8-8-8-8-8-8-8-8-8-8-8-|
D|-8-8-8-8-8-8-8-8-8-8-8-8-8-8-8-8-0-0-0-0-0-0-0-0-0-0-0-0-0-0-0-0-|

be the best
e|-----------------------------------------------------------------|
B|-----------------------------------------------------------------|
G|---------------------------------7-7-7-7-7-7-7-7-7-7-7-7-7-7-7-7-|
D|-8-8-8-8-8-8-8-8-8-8-8-8-8-8-8-8-7-7-7-7-7-7-7-7-7-7-7-7-7-7-7-7-|
A|-8-8-8-8-8-8-8-8-8-8-8-8-8-8-8-8-8-8-8-8-8-8-8-8-8-8-8-8-8-8-8-8-|
D|-8-8-8-8-8-8-8-8-8-8-8-8-8-8-8-8-0-0-0-0-0-0-0-0-0-0-0-0-0-0-0-0-|

you've got to change the world and use this chance to be heard
e|---------------------------------------------------------------------------------|
B|---------------------------------------------------------------------------------|
G|---------------------------------------------------------------------------------|
D|-8-8-8-8-8-8-8-8-8-8-8-8-8-8-8-8-3-3-3-3-3-3-3-3-7-7-7-7-7-7-7-7-8-8-8-8-8-8-8-8-|
A|-8-8-8-8-8-8-8-8-8-8-8-8-8-8-8-8-3-3-3-3-3-3-3-3-4-4-4-4-4-4-4-4-5-5-5-5-5-5-5-5-|
D|-8-8-8-8-8-8-8-8-8-8-8-8-8-8-8-8-3-3-3-3-3-3-3-3-4-4-4-4-4-4-4-4-5-5-5-5-5-5-5-5-|

your time is
e|-----------------------------------------------------------------|
B|-----------------------------------------------------------------|
G|-----------------------------------------------------------------|
D|-8-8-8-8-8-8-8-8-8-8-8-8-8-8-8-8-3-3-3-3-3-3-3-3-3-3-3-3-3-3-3-3-|
A|-8-8-8-8-8-8-8-8-8-8-8-8-8-8-8-8-3-3-3-3-3-3-3-3-3-3-3-3-3-3-3-3-|
D|-8-8-8-8-8-8-8-8-8-8-8-8-8-8-8-8-3-3-3-3-3-3-3-3-3-3-3-3-3-3-3-3-|

your time is(now)
e|-----------------------------------------------------------------|
B|-----------------------------------------------------------------|
G|-----------------------------------------------------------------|
D|-8-8-8-8-8-8-8-8-8-8-8-8-8-8-8-8-3-3-3-3-3-3-3-3-3-3-3-3-3-3-3-3-|
A|-8-8-8-8-8-8-8-8-8-8-8-8-8-8-8-8-3-3-3-3-3-3-3-3-3-3-3-3-3-3-3-3-|
D|-8-8-8-8-8-8-8-8-8-8-8-8-8-8-8-8-3-3-3-3-3-3-3-3-3-3-3-3-3-3-3-3-|

now
e|-----------------------------------------------------------------|
B|-----------------------------------------------------------------|
G|-----------------------------------------------------------------|
D|-8-8-8-8-8-8-8-8-8-8-8-8-8-8-8-8-8-8-8-8-8-8-8-8-8-8-8-8-8-8-8-8-|
A|-7-7-7-7-7-7-7-7-7-7-7-7-7-7-7-7-7-7-7-7-7-7-7-7-7-7-7-7-7-7-7-7-|
D|-7-7-7-7-7-7-7-7-7-7-7-7-7-7-7-7-7-7-7-7-7-7-7-7-7-7-7-7-7-7-7-7-|

e|---------------------------------------------------------------------------|
B|---------------------------------------------------------------------------|
G|---------------------------------------------------------------------------|
D|---7-x-x-/14-x-x-11-x-x-8-x-x-5-x-8-x-7-x-x-/14-x-x-11-x-x-8-x-x-5-x-11-12-|
A|---7-x-x-/14-x-x-11-x-x-8-x-x-5-x-8-x-7-x-x-/14-x-x-11-x-x-8-x-x-5-x-11-12-|
D|---7-x-x-/14-x-x-11-x-x-8-x-x-5-x-8-x-7-x-x-/14-x-x-11-x-x-8-x-x-5-x-11-12-|

11)TSP (The Small Print)
Main Riff
e|-------------------------------------------------|
B|------------3----------------------3-------------|
G|-------------------------------------------------|
D|----3-4-3-4-----4-3-4------3-4-3-4----4-3-4------|x2
A|-------------------------------------------------|
E|-------------------------------------------------|

Verse
e|---------------|-------------------|---------------------|--------------------------|
B|---------------|-------------------|---------------------|--------------------------|
G|-7--7--7--7----|-7---7----9---9----|-11---11---11---11---|--12----12----14----14----|
D|---------------|-------------------|---------------------|--------------------------|
A|-5--5--5--5----|-5---5----7---7----|--9----9----9----9---|--10----10----12----12----|
E|---------------|-------------------|---------------------|--------------------------|

e|---------------------|-------------------------|---------------------------|
B|---------------------|-------------------------|---------------------------|
G|-16---16---16---16---|-16----16----18----16----|--16----16---16----16------|
D|---------------------|-------------------------|---------------------------|
A|-14---14---14---14---|-14----16----14----14----|--14----14---14----13------|
E|---------------------|-------------------------|---------------------------|

e|--------------------|
B|--------------------|
G|-15--15---15---15-\-|
D|--------------------|
A|-13--13---13--------|
E|--------------------|

Main Riff

Chorus:
Some of the chords are palm muted, it's easy enough to work out which ones
e|----|-----|----|----|-------|----|----|-----|-----|-----|----|----|----|
B|----|-----|----|----|-------|----|----|-----|-----|-----|----|----|----|
G|-4--|-----|----|----|-------|-9--|-11-|--4--|-----|-----|----|-9--|----|
D|-4--|--4--|-0--|-4--|--X2---|-9--|-11-|--4--|--0--|--4--|--4-|-9--|-7--|
A|-2--|--4--|-0--|-4--|-------|-7--|-9--|--2--|--0--|--4--|--4-|-7--|-7--|
E|----|--4--|-0--|-4--|-------|----|----|-----|--0--|--4--|--4-|----|-7--|

e|---|---|----|---------|------|--------|
B|---|---|----|---------|------|--------|
G|-7-|-7-|-12-|-12--14--|--15--|-15-----|
D|-7-|-7-|----|---------|------|--------|
A|-5-|-9-|-10-|-10--12--|--13--|-13-----|
E|---|---|----|---------|------|--------|

Solo-This is a weird one with a lot of whammy bar abuse
e|-------|--------|-------|-----------------|------|-------------|--------|
B|-------|--------|-------|-----------------|-12b~-|-------------|--------|
G|-------|------6-|---17~-|--11-11-12-12-14-|------|-12~9-----15-|-15---\-|
D|-------|--------|-------|-----------------|------|-------------|--------|
A|-------|--------|-------|-----------------|------|------12-----|--------|
E|--9-\--|-\3-----|-------|-----------------|------|-------------|--------|


Verse

Chorus

Main Riff, loads of times

Chorus

End with-
e|-----------|
B|-----------|
G|-----------|
D|--9-\------|
A|--9-\------|
E|--9-\------|

12)Endlessly
Piano

13)Thoughts Of A Dying Atheist
Intro
e|-------10-----10-----10-|-----10-----10------|---10-----10-----10-|
B|---------11-----11------|-11----11-----11----|-----11-----11------|
G|-11/12-----12-----12----|---12----12-----11-/|12-----12-----12----|
D|------------------------|--------------------|--------------------|
A|------------------------|--------------------|--------------------|
E|------------------------|--------------------|--------------------|

e|------10-----10-----|
B|-11-----11-----11---|
G|---12-----12-----12-|
D|--------------------|
A|--------------------|
E|--------------------|


Verse 1 X2
e|----10------10-----10-|------10-----10-----|---10------10-----10-|
B|------11------11------|-11-----11-----11---|------11-----11------|
G|---------12-----12----|---12-----12-----12-|--------10-----10----|
D|-12-------------------|--------------------|-12------------------|
A|----------------------|--------------------|---------------------|
E|----------------------|--------------------|---------------------|

e|------10-------10-------|----11----11-----11-|------11------11-----|
B|-11------11-------11----|------11----11------|-11------11-----11---|
G|---10-------10-------10-|--------12----12----|---12------12-----12-|
D|------------------------|-13-----------------|---------------------|
A|------------------------|--------------------|---------------------|
E|------------------------|--------------------|---------------------|

e|----10------10-----10-|---10-------10--------|-----------10---------|----------11--------|
B|------10------10------|------10------10------|------11-----11----11-|-----13-----13--13--|
G|---------12-----12----|---------11-----11/12-|---12---12------12----|---12--12-----12----|
D|-12-------------------|-12-------------------|-12-------------------|-13-----------------|
A|----------------------|----------------------|----------------------|--------------------|
E|----------------------|----------------------|----------------------|--------------------|

e|----------11------11-|------11-----11-----|--------------------|--------------------|
B|-----10-----10-------|-10-----10-----10---|----11-----11-------|----11-----11-------|
G|---10--10-----10-----|---10-----10-----10-|------10-----10---10|------10-----10--10-|
D|-10------------------|--------------------|-12-----12-----12---|-13------13----13---|
A|---------------------|--------------------|--------------------|--------------------|
E|---------------------|--------------------|--------------------|--------------------|

e|------------------|------------------------|
B|---11----11----11-|-----11----11-----------|
G|-----10----10-----|-10----10-----10--------|
D|-12----12----12---|---12----12------12-----|
A|------------------|------------------------|
E|------------------|------------------------|

Chorus
e|-11-|-11-|-11-|-11-|-10-|-10-|-10-|-10-|-----|-11-|--11-|-11-|-11-|-10-|-10-|-11-|-11|
B|-13-|-11-|-10-|-10-|-11-|-10-|-11-|-12-|-----|-13-|--11-|-10-|-10-|-11-|-11-|-11-|-11|
G|-12-|-12-|-10-|-10-|-10-|-10-|-10-|-10-|-----|-12-|--12-|-10-|-10-|-10-|-13-|-12-|-11|
D|-10-|-10-|-10-|-10-|-12-|-12-|-12-|-12-|-----|-10-|--10-|-10-|-10-|-12-|-12-|-13-|-13|
A|----|----|----|----|----|----|----|----|-----|----|-----|----|----|----|----|----|---|
E|----|----|----|----|----|----|----|----|-----|----|-----|----|----|----|----|----|---|

e|-10-|-11-|-11-|-10-|
B|-11-|-10-|-11-|-11-|
G|-10-|-10-|-12-|-10-|
D|-12-|-12-|-13-|-12-|
A|----|----|----|----|
E|----|----|----|----|

Verse 2

Chorus

Bridge
e|-x-x-10-----10--10--10-------------10-10-10-------10-10-10-------------|
B|-x-x-11-----11--11--11---11--------11-11-11-------11-11-11-------------|
G|-x-x-12-----12--12--12---12--------12-12-12-------12-12-12-------------|
D|-x-x--------12--12--12---11--------------------------------------------|
A|-----------------------------------------------------------------------|
E|-----------------------------------------------------------------------|

Solo
e|-----|----|----|-------------------|-----|--------------------|-------|---------|----------------|
B|-----|----|----|-------------------|-----|--------------------|-------|---------|----------------|
G|-----|----|-12-|-10-------------14-|-14b-|--------17-15-14h15-|-------|-17---17-|-17-15-14--14h15|
D|-----|----|----|----12-11-10-------|-----|--------------------|-------|---------|----------------|
A|-----|----|----|-------------13----|-----|-10-10--------------|-0-\-/-|---------|----------------|
E|13-/-|15--|----|-------------------|-----|--------------------|-------|---------|----------------|


e|--------------|-----------------|-------------------|-------------------|-----------------------|--|
B|--------------|-----------------|-------------------|-------------------|-----------------------|--|
G|-14-\---------|-15----15\14--15-|--(15)-/-17-----15-|--17---17b-/full\--|--17/full\-17---/full\-|--|
D|------12--12-/|-----------------|-------------------|-------------------|--------------------------|
A|--------------|-----------------|-------------------|-------------------|-----------------------|--|
E|--------------|-----------------|-------------------|-------------------|--------------------------|

e|------------------------|---------------|-------------------------|
B|------------------------|---------------|-------------------------|
G|------19h17h19b-/full\--|---19b-/full\--|--20b-/full\--~~~~~~~~---|
D|------------------------|---------------|-------------------------|
A|------------------------|---------------|-------------------------|
E|------------------------|---------------|-------------------------|

Repeat Chorus

End on
e|-10-------|
B|-11-------|
G|-12-------|
D|-12-------|
A|----------|
E|----------|

14)Ruled By Secrecy
Piano

That's all, enjoy.
3 comments total.
0 reply
z3r0element07 wrote on September 24 2005, 04:56 pm

i dont see why u made a new one when u could've just updated ur other one

0 reply
Gu1T@r_H3r0 wrote on October 2 2005, 03:11 am

I didn't know how to update them when I made this. I was a n00b.

0 reply
guitarheroII wrote on November 22 2008, 09:18 am

Again TSP is in Drop D!

I want to post or [tab]
guest
You may want to rate the tab now too:
select rating
Please do not post tabs as comments. Select "correction" instead!