Oops, an error
Loading. Please wait.

Animals Tab

by Muse
ver3
ver3

Whole song

More versions @911Tabs.com
2,510 views 57 this week
no commentswrite comment
1 2 3 4 5
excellent!
x 3
Autoscroll
+/-
esc
set tempo
stop
Contributor
Difficulty
Tuning
intermediate
D# G# C# F# A# D#
WARNING: You are trying to view
                                    content from Ultimate-Guitar.com
                                    in an unauthorized application,
                                    which is prohibited.

                                    Please use an official Ultimate
                                    Guitar Tabs application for iPhone,
                                    iPad or Android to access legitimate
                                    chords, guitar, bass, and drum tabs
                                    from Ultimate-Guitar.com database.

                                    Type "ultimate guitar tabs" in Apple
                                    App Store's or Android Market's
                                    search to find the application.
Intro
Eb|-----|
Bb|-----|
Gb|--9~-|
Db|-----|
Ab|-----|
Eb|-----|


Verse
Eb|--------------------------------------------------|
Bb|--7-8-10~-8-7h8p7---------------------------------|
Gb|------------------9-7-9~---4-5-7-5-4-5-4---4------|
Db|-----------------------------------------7--------|
Ab|---------------------------------------------10~--|
Eb|--------------------------------------------------|

Eb|----------12-12-----------12-------------15-15--------|
Bb|---------12--15b17--17-17-17r15-13-12-12-------12-13~-|
Gb|--14b16-----------------------------------------------|
Db|------------------------------------------------------|
Ab|------------------------------------------------------|
Eb|------------------------------------------------------|

Pre-chorus
Eb|-------------------------------------------------------|
Bb|--------------------------------10~----------10-11-12~-|
Gb|------------11~-------12~------------------------------|
Db|--12~--10-12-----10-12-----10-12-----10-11-12----------|
Ab|-------------------------------------------------------|
Eb|-------------------------------------------------------|

Chorus
Eb|-------------------------------------|
Bb|--pb12r10---13~------12~--10/12/16~--|
Gb|----------12-------------------------|
Db|-------------------------------------|
Ab|-------------------------------------|
Eb|-------------------------------------|

Break 1
Eb|-----------------------------------------------------------|
Bb|-----------------------------------------------------------|
Gb|------------12-16-14-12-14-12-11h12p11--11-----------------|
Db|----------14--------------------------14--14-12-14-12------|
Ab|--------14-------------------------------------------15-14-|
Eb|---12-15---------------------------------------------------|

Eb|-----------------------------------------------------------|
Bb|------------13-17-15-13-15-13-12h13p12--12-----------------|
Gb|----------14--------------------------14--14-12-14-12-11---|
Db|--------14----------------------------------------------14-|
Ab|---12-15---------------------------------------------------|
Eb|-----------------------------------------------------------|

Eb|-----------------------------------------------------------|
Bb|-----------------------------------------------------------|
Gb|------------12-16-14-12-14-12-11h12p11--11-----------------|
Db|----------14--------------------------14--14-12-14-12------|
Ab|--------14-------------------------------------------15-14-|
Eb|---12-15---------------------------------------------------|

Eb|---------------------------------------------------------------|
Bb|------------13-17-15-13-15-13-12h13p12--12---------------------|
Gb|----------14--------------------------14--14-12-14-12-11-12~---|
Db|--------14-----------------------------------------------------|
Ab|---12-15-------------------------------------------------------|
Eb|---------------------------------------------------------------|


Verse
Eb|-------------------------------------------------------------------<12>-------|
Bb|--------10----------8-----------8--------10------5---------------<12>----<5>--|
Gb|---11-12--12--12-12-11b12-12-12-12r11-9-9--9-7b9-9r7-5-5-4h5p4---------<5>----|
Db|--------------------------------------------------------------5~--------------|
Ab|------------------------------------------------------------------------------|
Eb|------------------------------------------------------------------------------|

Eb|-----------12-12-----------12---------12--12--12-------15--15--15--------|
Bb|----------12--15b17--17-17-17r15-13-13--13--13--12-12----12--12--12-13~--|
Gb|---14b16-----------------------------------------------------------------|
Db|-------------------------------------------------------------------------|
Ab|-------------------------------------------------------------------------|
Eb|-------------------------------------------------------------------------|
                 
Pre-chorus
Eb|-------------------------------------------------------|
Bb|--------------------------------10~----------10-11-12~-|
Gb|------------11~-------12~------------------------------|
Db|--12~--10-12-----10-12-----10-12-----10-11-12----------|
Ab|-------------------------------------------------------|
Eb|-------------------------------------------------------|

Chorus
Eb|-------------------------------------|
Bb|--pb12r10---13~------12~--10/12/16~--|
Gb|----------12-------------------------|
Db|-------------------------------------|
Ab|-------------------------------------|
Eb|-------------------------------------|


Break 2
Eb|---------------------|---------------------|
Bb|---------------------|---------------------|
Gb|---------------------|---------------------|
Db|-x-x-x-x-x-x-x-x-x-x-|-x-x-x-x-x-x-x-x-x-x-|
Ab|-x-x-x-x-x-x-x-x-x-x-|-x-x-x-x-x-x-x-x-x-x-|
Eb|-x-x-x-x-x-x-x-x-x-x-|-x-x-x-x-x-x-x-x-x-x-|

Eb|---------------------|---------------------|
Bb|---------------------|---------------------|
Gb|---------------------|---------------------|
Db|-x-x-x-x-x-x-x-x-x-x-|-x-x-x-x-x-x-x-x-x-x-|
Ab|-0-0-0-0-0-0-0-0-0-0-|-x-x-x-x-x-x-x-x-x-x-|
Eb|-x-x-x-x-x-x-x-x-x-x-|-x-x-x-x-x-x-x-x-x-x-|
   

Eb|-------------------------------|-----------------------------|
Bb|-------------------------------|-----------------------------|
Gb|----11-12-11-12-14-12-11-12-11-|---11-12-11-12-14-12-11-12-0-|
Db|--14---------------------------|-14--------------------------|
Ab|-------------------------------|-----------------------------|
Eb|-------------------------------|-----------------------------|

Eb|------------------------------|-------------------------------|
Bb|----12-13-12-13-15-13-12-13-0-|------12--12-13-12--12---------|
Gb|--14--------------------------|-12-14--14--------14--14-12-11-|
Db|------------------------------|-------------------------------|
Ab|------------------------------|-------------------------------|
Eb|------------------------------|-------------------------------|

Eb|-------------------------------|-----------------------------|
Bb|-------------------------------|-----------------------------|
Gb|----11-12-11-12-14-12-11-12-11-|---11-12-11-12b14r12-11-12-0-|
Db|--14---------------------------|-14--------------------------|
Ab|-------------------------------|-----------------------------|
Eb|-------------------------------|-----------------------------|

Eb|------------------------------|-------------------------------|
Bb|----12-13-12-13-15-13-12-13-0-|------12--12-13-12--13-12------|
Gb|--14--------------------------|-12-14--14--------14-----14-12-|
Db|------------------------------|-------------------------------|
Ab|------------------------------|-------------------------------|
Eb|------------------------------|-------------------------------|

Pre-chorus
Eb|----------------------|-----------------------|----------------|---------------------|
Bb|----------------13----|--------------13-------|----------13----|--------------13-----|
Gb|---14--14-14--14---14-|-13--13-13--13---13\12-|-12-12--12---12-|-11--11-11--11---11--|
Db|----------------------|-----------------------|----------------|---------------------|
Ab|----------------------|-----------------------|----------------|---------------------|
Eb|----------------------|-----------------------|----------------|---------------------|

Eb|----------------------|--------------------|--------------------|------------------------|
Bb|----------------15----|--------------15----|--------------15----|--------------15--------|
Gb|---11--11-11--11---11-|-12--12-12--12---12-|-13--13-13--13---13-|-14--14-14--14---14/16--|
Db|----------------------|--------------------|--------------------|------------------------|
Ab|----------------------|--------------------|--------------------|------------------------|
Eb|----------------------|--------------------|--------------------|------------------------|

Chorus
Eb|----------------15----|--------------14----|--------------12----|--------------12----|
Bb|---12--12-12--12---12-|-12--12-12--12---12-|-12--12-12--12---12-|-12--12-12--12---12-|
Gb|----------------------|--------------------|--------------------|--------------------|
Db|----------------------|--------------------|--------------------|--------------------|
Ab|----------------------|--------------------|--------------------|--------------------|
Eb|----------------------|--------------------|--------------------|--------------------|

Eb|---------12---12----|-------14---14--|------------12---12---12---12---12---12-----|
Bb|---13--13---13---13-|-13--13---13----|-13-13-13-13--13---13---13---13---13---13--|
Gb|--------------------|----------------|-------------------------------------------|
Db|--------------------|----------------|-------------------------------------------|
Ab|--------------------|----------------|-------------------------------------------|
Eb|--------------------|----------------|-------------------------------------------|

Eb|---------11---11----|-------11---11-----|
Bb|---12--12---12---12-|-12--12---12---12--|
Gb|--------------------|-------------------|
Db|--------------------|-------------------|
Ab|--------------------|-------------------|
Eb|--------------------|-------------------|

Outro
Eb|-----------------------|
Bb|-----------------------|
Gb|-----------------------|     
Db|--------14-----12------|       
Ab|-------------------15--|                     
Eb|--12--12--12-12--12----| x3

Eb|------------------------|
Bb|------------------------|
Gb|------------------------|     
Db|--------14-----12-------|       
Ab|-------------------15\--|                     
Eb|--12--12--12-12--12-----| 


Eb|----------------------|
Bb|----------------------|
Gb|----------------------|
Db|----------------------|
Ab|----------------------|
Eb|--0--0-12-0-0-10-0-8--| x3

Eb|----------------------|-------|
Bb|----------------------|---12--|
Gb|----------------------|---12--|
Db|----------------------|---14--|
Ab|----------------------|-------|
Eb|--0--0-12-0-0-10-0-8--|-------|

Eb|----------------------|
Bb|----------------------|
Gb|----------------------|
Db|----------------------|
Ab|----------------------|
Eb|--0--0-12-0-0-10-0-8--| x4

Eb|-------------------------|-----------------------|
Bb|-------------------------|-----------------------|
Gb|-------------------------|-----------------------|
Db|-------------------------|-----------------------|
Ab|---------9-----10---12---|--7-----6-----5---3----|
Eb|---0-0-0---0-0----0----0-|----0-0---0-0---0---0--| x2

Eb|-------------------------|-----------------------|
Bb|-------------------------|-----------------------|
Gb|-------------------------|-----------------------|
Db|-------------------------|-----------------------|
Ab|---7-----9-----10---12---|--7-----6-----5---3----|
Eb|---0-0-0---0-0----0----0-|--0-0-0---0-0---0---0--|

Eb|--------------------------|----------------------|
Bb|--------------------------|----------------------|
Gb|----9-9-9-----------------|--9-------------------|
Db|----x-x-x-----------------|--x-------------------|
Ab|----7-7-7-9-----10---12---|--7-----6-----5---3\--|
Eb|----0-0-0---0-0----0----0-|--0-0-0---0-0---0-----|
comments
We did not receive enough feedback on this tab! Please rate:
1 2 3 4 5
I want to post or [tab]
guest
You may want to rate the tab now too:
select rating
Please do not post tabs as comments. Select "correction" instead!