Oops, an error
Loading. Please wait.

Assassin Tab

by Muse
ver5
ver5

Whole song

Interactive

More versions @911Tabs.com
596 views 9 this week
no commentswrite comment
1 2 3 4 5
excellent!
x 2
Autoscroll
+/-
esc
set tempo
stop
Contributor
Difficulty
Tuning
intermediate
D A D G B E
WARNING: You are trying to view
                                    content from Ultimate-Guitar.com
                                    in an unauthorized application,
                                    which is prohibited.

                                    Please use an official Ultimate
                                    Guitar Tabs application for iPhone,
                                    iPad or Android to access legitimate
                                    chords, guitar, bass, and drum tabs
                                    from Ultimate-Guitar.com database.

                                    Type "ultimate guitar tabs" in Apple
                                    App Store's or Android Market's
                                    search to find the application.
-----------------------------------------------------------------------------
                             Assassin - Muse
-----------------------------------------------------------------------------
Tabbed by: xtinction (me)
E-mail: luclearxplosion@gmail.com

Tuning: Drop D (DADGBe)
Tempo: 125 bpm
Timing: 4/4, switches to 5/4 during sections of the verses
Key: F Major

b  - bend
r  - return bend
/  - slide up
\  - slide down
h  - hammer on
p  - pull off
^  - whammy pedal up one octave
=  - whammy pedal back to regular pitch
~  - vibrato
tr - trill
t  - tap
x  - muted note
PM - palm mute
ST - staccato

I am including the guitar parts for both the album version of this song, and the
Grand Omega Bosses Edit version.
Parts for the Grand Omega Bosses Edit version will be indicated with GOBE.


Intro

Guitar 1 - overdrive (clean)

e|--------------------------------------------------------------------------|
B|--------------------------------------------------------------------------|
G|-3p2-2-2-2-2--3p2-2-2-2-2--3p2-2-2-(x2)-----------------------------------|
D|--------------------------------------------------------------------------|
A|--------------------------------------------------------------------------|
D|--------------------------------------------------------------------------|


Guitar 2 - overdrive (clean)

e|--------------------------------------------------------------------------|
B|-3p2-2-2-2-2--3p2-2-2-2-2--3p2-2-2-(x2)-----------------------------------|
G|--------------------------------------------------------------------------|
D|--------------------------------------------------------------------------|
A|--------------------------------------------------------------------------|
D|--------------------------------------------------------------------------|


Guitar 1 - overdrive (clean)

e|--------------------------------------------------------------------------|
B|--------------------------------------------------------------------------|
G|-3p0-0-0-0-0--3p0-0-0-0-0--3p0-0-0-(x2)-----------------------------------|
D|--------------------------------------------------------------------------|
A|--------------------------------------------------------------------------|
D|--------------------------------------------------------------------------|


Guitar 2 - overdrive (clean)

e|--------------------------------------------------------------------------|
B|-4p3-3-3-3-3--4p3-3-3-3-3--4p3-3-3-(x2)-----------------------------------|
G|--------------------------------------------------------------------------|
D|--------------------------------------------------------------------------|
A|--------------------------------------------------------------------------|
D|--------------------------------------------------------------------------|


Guitar 1 - overdrive (clean)

e|--------------------------------------------------------------------------|
B|--------------------------------------------------------------------------|
G|-3p2-2-2-2-2--3p2-2-2-2-2--3p2-2-2-(x2)-----------------------------------|
D|--------------------------------------------------------------------------|
A|--------------------------------------------------------------------------|
D|--------------------------------------------------------------------------|


Guitar 2 - overdrive (clean)

e|--------------------------------------------------------------------------|
B|-3p2-2-2-2-2--3p2-2-2-2-2--3p2-2-2-(x2)-----------------------------------|
G|--------------------------------------------------------------------------|
D|--------------------------------------------------------------------------|
A|--------------------------------------------------------------------------|
D|--------------------------------------------------------------------------|


Guitar 1 - overdrive (clean)

e|--------------------------------------------------------------------------|
B|--------------------------------------------------------------------------|
G|-3p0-0-0-0-0--3p0-0-0-0-0--3p0-0-0--3p0-0-0-0-0--3p0-0-0-0-0-0------------|
D|--------------------------------------------------------------------------|
A|--------------------------------------------------------------------------|
D|--------------------------------------------------------------------------|


Guitar 2 - overdrive (clean)

e|--------------------------------------------------------------------------|
B|-4p3-3-3-3-3--4p3-3-3-3-3--4p3-3-3--4p3-3-3-3-3--4p3-3-3-3-3-3------------|
G|--------------------------------------------------------------------------|
D|--------------------------------------------------------------------------|
A|--------------------------------------------------------------------------|
D|--------------------------------------------------------------------------|


Pre-verse

Guitar 1 - overdrive

e|--------------------------------------------------------------------------|
B|--------------------------------------------------------------------------|
G|--------------------------------------------------------------------------|
D|--------------------------------------------------------------------------|
A|--------------------------------------------------------------------------|
D|-8-7-7-7-7-7--8-7-7-7-7-7--8-7-7-7-(x2)-----------------------------------|
PM ...........  ...........  .......

e|--------------------------------------------------------------------------|
B|--------------------------------------------------------------------------|
G|--------------------------------------------------------------------------|
D|--------------------------------------------------------------------------|
A|--------------------------------------------------------------------------|
D|-8-5-5-5-5-5--8-5-5-5-5-5--8-5-5-5-(x2)-----------------------------------|
PM ...........  ...........  .......


Guitar 2 - overdrive

e|--------------------------------------------------------------------------|
B|-10--11--10--11--10-(x2)--8--8--8--8--8-(x2)------------------------------|
G|--------------------------------------------------------------------------|
D|--------------------------------------------------------------------------|
A|--------------------------------------------------------------------------|
D|--------------------------------------------------------------------------|
ST ..................       .............

Guitar 1 GOBE - distortion + whammy (this section may be a little confusing, listen to 
the song to get the feel for it)

e|-9tr10-9-9tr10-9-10--9tr10-9-9tr10-9-10-----------------------------------|
B|--------------------------------------------------------------------------|
G|--------------------------------------------------------------------------|
D|--------------------------------------------------------------------------|
A|--------------------------------------------------------------------------|
D|--------------------------------------------------------------------------|
   ^     = ^     = ^ = ^     = ^     = ^

e|-10tr11-10-10tr11-10-11--10tr11-10-10tr11-10-11---------------------------|
B|--------------------------------------------------------------------------|
G|--------------------------------------------------------------------------|
D|--------------------------------------------------------------------------|
A|--------------------------------------------------------------------------|
D|--------------------------------------------------------------------------|
   ^      =  ^      =  ^ = ^      =  ^      =  ^

Guitar 1 - overdrive

e|--------------------------------------------------------------------------|
B|--------------------------------------------------------------------------|
G|--------------------------------------------------------------------------|
D|--------------------------------------------------------------------------|
A|--------------------------------------------------------------------------|
D|-8-7-7-7-7-7--8-7-7-7-7-7--8-7-7-7-(x2)-----------------------------------|
PM ...........  ...........  .......

e|--------------------------------------------------------------------------|
B|--------------------------------------------------------------------------|
G|--------------------------------------------------------------------------|
D|--------------------------------------------------------------------------|
A|--------------------------------------------------------------------------|
D|-8-5-5-5-5-5--8-5-5-5-5-5--8-5-5-5-(x2)-----------------------------------|
PM ...........  ...........  .......


Guitar 2 - overdrive

e|--------------------------------------------------------------------------|
B|-10--11--10--11--10-(x2)--8--8--8--8--8-(x2)------------------------------|
G|--------------------------------------------------------------------------|
D|--------------------------------------------------------------------------|
A|--------------------------------------------------------------------------|
D|--------------------------------------------------------------------------|
ST ..................       .............


Guitar 1 GOBE - distortion + whammy (this section may be a little confusing, listen to 
the song to get the feel for it)

e|-9tr10-9-9tr10-9-10--9tr10-9-9tr10-9-10-----------------------------------|
B|--------------------------------------------------------------------------|
G|--------------------------------------------------------------------------|
D|--------------------------------------------------------------------------|
A|--------------------------------------------------------------------------|
D|--------------------------------------------------------------------------|
   ^     = ^     = ^ = ^     = ^     = ^

e|-10tr11-10-10tr11-10-11--10tr11-10-10tr11-10-11---------------------------|
B|--------------------------------------------------------------------------|
G|--------------------------------------------------------------------------|
D|--------------------------------------------------------------------------|
A|--------------------------------------------------------------------------|
D|--------------------------------------------------------------------------|
   ^      =  ^      =  ^ = ^      =  ^      =  ^


Guitar 1 - overdrive

e|--------------------------------------------------------------------------|
B|--------------------------------------------------------------------------|
G|--------------------------------------------------------------------------|
D|--------------------------------------------------------------------------|
A|--------------------------------------------------------------------------|
D|-8p0-0-0-0-0--8p0-0-0-0-0--8p0-0-0-(x3)-----------------------------------|

e|--------------------------------------------------------------------------|
B|--------------------------------------------------------------------------|
G|--------------------------------------------------------------------------|
D|--------------------------------------------------------------------------|
A|--------------------------------------------------------------------------|
D|-8p0-0-0-0-0--8p0-0-0-0-0--8-8-8-8-8-8------------------------------------|

e|--------------------------------------------------------------------------|
B|--------------------------------------------------------------------------|
G|--------------------------------------------------------------------------|
D|--------------------------------------------------------------------------|
A|--------------------------------------------------------------------------|
D|-8p0-0-0-0-0--8p0-0-0-0-0--8p0-0-0-(x3)-----------------------------------|

e|--------------------------------------------------------------------------|
B|--------------------------------------------------------------------------|
G|--------------------------------------------------------------------------|
D|--------------------------------------------------------------------------|
A|--------------------------------------------------------------------------|
D|-8p0-0-0-0-0--8p0-0-0-0-0--8-8-8-8-8-8------------------------------------|


Verse

Guitar 1 - distortion

e|--------------------------------------------------------------------------|
B|------------------------------------------------------------------------o-|
G|--------------------------------------------------------------------------|
D|--------------------------------------------------------------------------|
A|-8p5-5-5-5-5--8p5-5-5-5-5--8p5-5-5--------------------------------------o-|
D|--------------------------------------------------------------------------|
PM ...........  ...........  .......


Timing changes to 5/4 for one bar here

e|-------------------------|
B|-------------------------|
G|-------------------------|
D|-------------------------|
A|-8p5-5-5-5-5-5-5---------|
D|-------------------------|
PM ...............

e|--------------------------------------------------------------------------|
B|------------------------------------------------------------------------o-|
G|--------------------------------------------------------------------------|
D|--------------------------------------------------------------------------|
A|-8p7-7-7-7-7--8p7-7-7-7-7--8p7-7-7--------------------------------------o-|
D|--------------------------------------------------------------------------|
PM ...........  ...........  .......

e|--------------------------------------------------------------------------|
B|------------------------------------------------------------------------o-|
G|--------------------------------------------------------------------------|
D|--------------------------------------------------------------------------|
A|-8h10-10-10-10-10--8h10-10-10-10-10--8h10-10-10-------------------------o-|
D|--------------------------------------------------------------------------|
PM ................  ................  ..........


Timing changes to 5/4 for one bar here
e|-------------------------|
B|-------------------------|
G|-------------------------|
D|-------------------------|
A|-8h10-10-10-10-10-10-10--|
D|-------------------------|
PM ......................

e|--------------------------------------------------------------------------|
B|------------------------------------------------------------------------o-|
G|--------------------------------------------------------------------------|
D|--------------------------------------------------------------------------|
A|-10h12-12-12-12-12--10h12-12-12-12-12--10h12-12-12----------------------o-|
D|--------------------------------------------------------------------------|
PM .................  .................  ...........


Repeat verse once


Chorus

Guitar 1 - distortion

e|--------------------------------------------------------------------------|
B|--------------------------------------------------------------------------|
G|--------------------------------------------------------------------------|
D|--------------------------------------------------------------------------|
A|--------------------------------------------------------------------------|
D|-7p3-3-3-3-3--7p3-3-3-3-3--7p3-3-3-(x3)-----------------------------------|

e|--------------------------------------------------------------------------|
B|--------------------------------------------------------------------------|
G|--------------------------------------------------------------------------|
D|--------------------------------------------------------------------------|
A|--------------------------------------------------------------------------|
D|-9h10-10-10-10-10--9h10-10-10-10-10--9h10-10-10---------------------------|

e|--------------------------------------------------------------------------|
B|--------------------------------------------------------------------------|
G|--------------------------------------------------------------------------|
D|--------------------------------------------------------------------------|
A|--------------------------------------------------------------------------|
D|-8p5-5-5-5-5--8p5-5-5-5-5--8p5-5-5-(x3)-----------------------------------|

e|--------------------------------------------------------------------------|
B|--------------------------------------------------------------------------|
G|--------------------------------------------------------------------------|
D|--------------------------------------------------------------------------|
A|--------------------------------------------------------------------------|
D|-8p0-0-0-0-0-8p0-0-0-0-0-8p0-0-0------------------------------------------|


Repeat Chorus once


Post-chorus

Guitar 1 - overdrive

e|--------------------------------------------------------------------------|
B|--------------------------------------------------------------------------|
G|--------------------------------------------------------------------------|
D|--------------------------------------------------------------------------|
A|--------------------------------------------------------------------------|
D|-8-7-7-7-7-7--8-7-7-7-7-7--8-7-7-7-(x2)-----------------------------------|
PM ...........  ...........  .......

e|--------------------------------------------------------------------------|
B|--------------------------------------------------------------------------|
G|--------------------------------------------------------------------------|
D|--------------------------------------------------------------------------|
A|--------------------------------------------------------------------------|
D|-8-5-5-5-5-5--8-5-5-5-5-5--8-5-5-5-(x2)-----------------------------------|
PM ...........  ...........  .......


Guitar 2 - overdrive

e|--------------------------------------------------------------------------|
B|-10--11--10--11--10-(x2)--8--8--8--8--8-(x2)------------------------------|
G|--------------------------------------------------------------------------|
D|--------------------------------------------------------------------------|
A|--------------------------------------------------------------------------|
D|--------------------------------------------------------------------------|
ST ..................       .............


Guitar 1 GOBE - distortion + whammy (this section may be a little confusing, listen to 
the song to get the feel for it)

e|-9tr10-9-9tr10-9-10--9tr10-9-9tr10-9-10-----------------------------------|
B|--------------------------------------------------------------------------|
G|--------------------------------------------------------------------------|
D|--------------------------------------------------------------------------|
A|--------------------------------------------------------------------------|
D|--------------------------------------------------------------------------|
   ^     = ^     = ^ = ^     = ^     = ^

e|-10tr11-10-10tr11-10-11--10tr11-10-10tr11-10-11---------------------------|
B|--------------------------------------------------------------------------|
G|--------------------------------------------------------------------------|
D|--------------------------------------------------------------------------|
A|--------------------------------------------------------------------------|
D|--------------------------------------------------------------------------|
   ^      =  ^      =  ^ = ^      =  ^      =  ^


Guitar 1 - overdrive

e|--------------------------------------------------------------------------|
B|--------------------------------------------------------------------------|
G|--------------------------------------------------------------------------|
D|--------------------------------------------------------------------------|
A|--------------------------------------------------------------------------|
D|-8-7-7-7-7-7--8-7-7-7-7-7--8-7-7-7-(x2)-----------------------------------|
PM ...........  ...........  .......

e|--------------------------------------------------------------------------|
B|--------------------------------------------------------------------------|
G|--------------------------------------------------------------------------|
D|--------------------------------------------------------------------------|
A|--------------------------------------------------------------------------|
D|-8-5-5-5-5-5--8-5-5-5-5-5--8-5-5-5----------------------------------------|
PM ...........  ...........  .......


Guitar 2 - overdrive

e|--------------------------------------------------------------------------|
B|-10--11--10--11--10-(x2)--8--8--8--8--8-----------------------------------|
G|--------------------------------------------------------------------------|
D|--------------------------------------------------------------------------|
A|--------------------------------------------------------------------------|
D|--------------------------------------------------------------------------|
ST ..................       .............


Guitar 1 GOBE - distortion + whammy (this section may be a little confusing, listen to 
the song to get the feel for it)

e|-9tr10-9-9tr10-9-10--9tr10-9-9tr10-9-10-----------------------------------|
B|--------------------------------------------------------------------------|
G|--------------------------------------------------------------------------|
D|--------------------------------------------------------------------------|
A|--------------------------------------------------------------------------|
D|--------------------------------------------------------------------------|
   ^     = ^     = ^ = ^     = ^     = ^

e|-10tr11-10-10tr11-10-11---------------------------------------------------|
B|--------------------------------------------------------------------------|
G|--------------------------------------------------------------------------|
D|--------------------------------------------------------------------------|
A|--------------------------------------------------------------------------|
D|--------------------------------------------------------------------------|
   ^      =  ^      =  ^


Guitar 1 GOBE - distortion

e|--------------------------------------------------------------------------|
B|--------------------------------------------------------------------------|
G|-x-x-x-x-x-x-x-x-x-x-x-x-x------------------------------------------------|
D|-x-x-x-x-x-x-x-x-x-x-x-x-x------------------------------------------------|
A|-x-x-x-x-x-x-x-x-x-x-x-x-x------------------------------------------------|
D|--------------------------------------------------------------------------|

Here I will be splitting the rest of the tab into 2 sections:
-The rest of the album version of the song
-The rest of the GOBE version

                           *Album version*


Guitar 1 - overdrive

e|--------------------------------------------------------------------------|
B|--------------------------------------------------------------------------|
G|--------------------------------------------------------------------------|
D|--------------------------------------------------------------------------|
A|--------------------------------------------------------------------------|
D|-8p0-0-0-0-0--8p0-0-0-0-0--8p0-0-0-(x3)-----------------------------------|

e|--------------------------------------------------------------------------|
B|--------------------------------------------------------------------------|
G|--------------------------------------------------------------------------|
D|--------------------------------------------------------------------------|
A|--------------------------------------------------------------------------|
D|-8p0-0-0-0-0--8p0-0-0-0-0--8-8-8-8-8-8------------------------------------|

e|--------------------------------------------------------------------------|
B|--------------------------------------------------------------------------|
G|--------------------------------------------------------------------------|
D|--------------------------------------------------------------------------|
A|--------------------------------------------------------------------------|
D|-8p0-0-0-0-0--8p0-0-0-0-0--8p0-0-0-(x3)-----------------------------------|

e|--------------------------------------------------------------------------|
B|--------------------------------------------------------------------------|
G|--------------------------------------------------------------------------|
D|--------------------------------------------------------------------------|
A|--------------------------------------------------------------------------|
D|-8p0-0-0-0-0--8p0-0-0-0-0--8-8-8-8-8-8------------------------------------|


Verse

Guitar 1 - distortion

e|--------------------------------------------------------------------------|
B|------------------------------------------------------------------------o-|
G|--------------------------------------------------------------------------|
D|--------------------------------------------------------------------------|
A|-8p5-5-5-5-5--8p5-5-5-5-5--8p5-5-5--------------------------------------o-|
D|--------------------------------------------------------------------------|
PM ...........  ...........  .......


Timing changes to 5/4 for one bar here

e|-------------------------|
B|-------------------------|
G|-------------------------|
D|-------------------------|
A|-8p5-5-5-5-5-5-5---------|
D|-------------------------|
PM ...............

e|--------------------------------------------------------------------------|
B|------------------------------------------------------------------------o-|
G|--------------------------------------------------------------------------|
D|--------------------------------------------------------------------------|
A|-8p7-7-7-7-7--8p7-7-7-7-7--8p7-7-7--------------------------------------o-|
D|--------------------------------------------------------------------------|
PM ...........  ...........  .......

e|--------------------------------------------------------------------------|
B|------------------------------------------------------------------------o-|
G|--------------------------------------------------------------------------|
D|--------------------------------------------------------------------------|
A|-8h10-10-10-10-10--8h10-10-10-10-10--8h10-10-10-------------------------o-|
D|--------------------------------------------------------------------------|
PM ................  ................  ..........


Timing changes to 5/4 for one bar here
e|-------------------------|
B|-------------------------|
G|-------------------------|
D|-------------------------|
A|-8h10-10-10-10-10-10-10--|
D|-------------------------|
PM ......................

e|--------------------------------------------------------------------------|
B|------------------------------------------------------------------------o-|
G|--------------------------------------------------------------------------|
D|--------------------------------------------------------------------------|
A|-10h12-12-12-12-12--10h12-12-12-12-12--10h12-12-12----------------------o-|
D|--------------------------------------------------------------------------|
PM .................  .................  ...........


Chorus

Guitar 1 - distortion

e|--------------------------------------------------------------------------|
B|--------------------------------------------------------------------------|
G|--------------------------------------------------------------------------|
D|--------------------------------------------------------------------------|
A|--------------------------------------------------------------------------|
D|-7p3-3-3-3-3--7p3-3-3-3-3--7p3-3-3-(x3)-----------------------------------|

e|--------------------------------------------------------------------------|
B|--------------------------------------------------------------------------|
G|--------------------------------------------------------------------------|
D|--------------------------------------------------------------------------|
A|--------------------------------------------------------------------------|
D|-9h10-10-10-10-10--9h10-10-10-10-10--9h10-10-10---------------------------|

e|--------------------------------------------------------------------------|
B|--------------------------------------------------------------------------|
G|--------------------------------------------------------------------------|
D|--------------------------------------------------------------------------|
A|--------------------------------------------------------------------------|
D|-8p5-5-5-5-5--8p5-5-5-5-5--8p5-5-5-(x3)-----------------------------------|

e|--------------------------------------------------------------------------|
B|--------------------------------------------------------------------------|
G|--------------------------------------------------------------------------|
D|--------------------------------------------------------------------------|
A|--------------------------------------------------------------------------|
D|-8p0-0-0-0-0-8p0-0-0-0-0-8p0-0-0------------------------------------------|


Guitar 2

e|-------------------------|
B|-10--11--10--11--10------|
G|-------------------------|
D|-------------------------|
A|-------------------------|
D|-------------------------|
ST ..................


Guitar 1 - overdrive

e|--------------------------------------------------------------------------|
B|--------------------------------------------------------------------------|
G|--------------------------------------------------------------------------|
D|--------------------------------------------------------------------------|
A|--------------------------------------------------------------------------|
D|-8-7-7-7-7-7--8-7-7-7-7-7--8-7-7-7-(x2)-----------------------------------|
PM ...........  ...........  .......

e|--------------------------------------------------------------------------|
B|--------------------------------------------------------------------------|
G|--------------------------------------------------------------------------|
D|--------------------------------------------------------------------------|
A|--------------------------------------------------------------------------|
D|-8-5-5-5-5-5--8-5-5-5-5-5--8-5-5-5-(x2)-----------------------------------|
PM ...........  ...........  .......


Guitar 2 - overdrive

e|--------------------------------------------------------------------------|
B|-10--11--10--11--10-(x2)--8--8--8--8--8-(x2)------------------------------|
G|--------------------------------------------------------------------------|
D|--------------------------------------------------------------------------|
A|--------------------------------------------------------------------------|
D|--------------------------------------------------------------------------|
ST ..................       .............


Guitar 1 - overdrive

e|--------------------------------------------------------------------------|
B|--------------------------------------------------------------------------|
G|--------------------------------------------------------------------------|
D|--------------------------------------------------------------------------|
A|--------------------------------------------------------------------------|
D|-8-7-7-7-7-7--8-7-7-7-7-7--8-7-7-7-(x2)-----------------------------------|
PM ...........  ...........  .......

e|--------------------------------------------------------------------------|
B|--------------------------------------------------------------------------|
G|--------------------------------------------------------------------------|
D|--------------------------------------------------------------------------|
A|--------------------------------------------------------------------------|
D|-8-5-5-5-5-5--8-5-5-5-5-5--8-5-5-5-(x2)-----------------------------------|
PM ...........  ...........  .......


Guitar 2 - overdrive

e|--------------------------------------------------------------------------|
B|-10--11--10--11--10-(x2)--8--8--8--8--8-(x2)------------------------------|
G|--------------------------------------------------------------------------|
D|--------------------------------------------------------------------------|
A|--------------------------------------------------------------------------|
D|--------------------------------------------------------------------------|
ST ..................       .............


Outro

Guitar 1

e--------------------------------------|
B--------------------------------------|
G--------------------------------------|
D---------------------------------0----|
A---------------------------------0----|
D-8-7-0-7-6-0-5-6-0-5-4-0-4-3-2-1-0----|
PM.................................

                        *Grand Omega Bosses Edit*

Guitar parts here will no longer be marked with GOBE, as all guitar parts marked hereon 
apply to that version of the song


Interlude

Guitar 1 - overdrive

e|--------------------------------------------------------------------------|
B|--------------------------------------------------------------------------|
G|--------------------------------------------------------------------------|
D|--------------------------------------------------------------------------|
A|--------------------------------------------------------------------------|
D|-8p0-0-0-0-0--8p0-0-0-0-0--8p0-0-0-(x3)-----------------------------------|

e|--------------------------------------------------------------------------|
B|--------------------------------------------------------------------------|
G|--------------------------------------------------------------------------|
D|--------------------------------------------------------------------------|
A|--------------------------------------------------------------------------|
D|-8p0-0-0-0-0--8p0-0-0-0-0--8-8-8-8-8-8------------------------------------|

e|--------------------------------------------------------------------------|
B|--------------------------------------------------------------------------|
G|--------------------------------------------------------------------------|
D|--------------------------------------------------------------------------|
A|--------------------------------------------------------------------------|
D|-8p0-0-0-0-0--8p0-0-0-0-0--8p0-0-0-(x3)-----------------------------------|

e|--------------------------------------------------------------------------|
B|--------------------------------------------------------------------------|
G|--------------------------------------------------------------------------|
D|--------------------------------------------------------------------------|
A|--------------------------------------------------------------------------|
D|-8p0-0-0-0-0--8p0-0-0-0-0--8-8-8-8-8-8------------------------------------|


Repeat interlude once


Bridge

Guitar 1 - distortion + whammy

e|-10t13p12p10----|
B|----------------|
G|----------------|
D|----------------|
A|----------------|
D|----------------|
   ^

e|-t13p12p10-(x9)-|
B|----------------|
G|----------------|
D|----------------|
A|----------------|
D|----------------|
   ^

e|-t13p12p10\-----|
B|----------------|
G|----------------|
D|----------------|
A|-------------/\-|
D|----------------|
   ^           =

Guitar 1 - distortion

e|--------------------------------------------------------------------------|
B|--------------------------------------------------------------------------|
G|--------------------------------------------------------------------------|
D|--------------------------------------------------------------------------|
A|--------------------------------------------------------------------------|
D|-0-0-0-0-3-8--7-(x4)------------------------------------------------------|

e|--------------------------------------------------------------------------|
B|--------------------------------------------------------------------------|
G|--------------------------------------------------------------------------|
D|--------------------------------------------------------------------------|
A|-7-5-7-8--7-8-7-8-10br-7tr8-----------------------------------------------|
D|--------------------------------------------------------------------------|

e|--------------------------------------------------------------------------|
B|--------------------------------------------------------------------------|
G|--------------------------------------------------------------------------|
D|--------------------------------------------------------------------------|
A|-5-7-8-7-8-10br-7tr8-(x2)-------------------------------------------------|
D|--------------------------------------------------------------------------|

e|--------------------------------------------------------------------------|
B|--------------------------------------------------------------------------|
G|--------------------------------------------------------------------------|
D|--------------------------------------------------------------------------|
A|-5-7-8-7------------------------------------------------------------------|
D|---------5br--------------------------------------------------------------|

e|--------------------------------------------------------------------------|
B|--------------------------------------------------------------------------|
G|--------------------------------------------------------------------------|
D|--------------------------------------------------------------------------|
A|--------------------------------------------------------------------------|
D|-0-0-0-0-3-8--7--0-0-0-0-3-9--8--0-0-0-0-3-10--9--------------------------|

e|--------------------------------------------------------------------------|
B|--------------------------------------------------------------------------|
G|--------------------------------------------------------------------------|
D|--------------------------------------------------------------------------|
A|-----------5--7--8~-------------------------------------------------------|
D|-0-0-0-0-3----------------------------------------------------------------|

e|--------------------------------------------------------------------------|
B|--------------------------------------------------------------------------|
G|--------------------------------------------------------------------------|
D|--------------------------------------------------------------------------|
A|-5-7-8-7-8-10br-7-4-5-7-(x3)-5-7-8-7-8-8p7p4------------------------------|
D|--------------------------------------------------------------------------|

e|------------------|
B|------------------|
G|--------9---------|
D|-7--7-7-----------|
A|-7--7-7-----------|
D|-7--7-7-----------|

e|--------------------|
B|--------------------|
G|------------9-(x3)--|
D|-7-7-7--7-7---------|
A|-7-7-7--7-7---------|
D|-7-7-7--7-7---------|

e|--------------------|
B|--------------------|
G|------------9-------|
D|-7-7-8--8-8---------|
A|-7-7-8--8-8---------|
D|-7-7-8--8-8---------|

e|--------------------|
B|--------------------|
G|------------10------|
D|-7-7-8--8-8---------|
A|-7-7-8--8-8---------|
D|-7-7-8--8-8---------|

e|-------------------------------|
B|-------------------------------|
G|------------10~---12~---10~----|
D|-7-7-8--8-8-----8-----8-----8--|
A|-7-7-8--8-8-----8-----8-----8--|
D|-7-7-8--8-8-----8-----8-----8--|

e|------------------|
B|------------------|
G|--------9---------|
D|-7--7-7-----------|
A|-7--7-7-----------|
D|-7--7-7-----------|

e|--------------------|
B|--------------------|
G|------------9-(x3)--|
D|-7-7-7--7-7---------|
A|-7-7-7--7-7---------|
D|-7-7-7--7-7---------|

e|--------------------|
B|--------------------|
G|------------9-------|
D|-7-7-8--8-8---------|
A|-7-7-8--8-8---------|
D|-7-7-8--8-8---------|

e|--------------------|
B|--------------------|
G|------------10------|
D|-7-7-8--8-8---------|
A|-7-7-8--8-8---------|
D|-7-7-8--8-8---------|

e|-------------------------------|
B|-------------------------------|
G|------------10~---12~---10~----|
D|-7-7-8--8-8-----8-----8-----8--|
A|-7-7-8--8-8-----8-----8-----8--|
D|-7-7-8--8-8-----8-----8-----8--|

e|--------------------|
B|--------------------|
G|------------10------|
D|-7-7-5--5-5---------|
A|-7-7-5--5-5---------|
D|-7-7-5--5-5---------|


e|--------------------|
B|--------------------|
G|------------9-------|
D|-5-5-5--5-5---------|
A|-5-5-5--5-5---------|
D|-5-5-5--5-5---------|

e|--------------------|
B|--------------------|
G|------------7-------|
D|-5-5-5--5-5---------|
A|-5-5-5--5-5---------|
D|-5-5-5--5-5---------|

e|--------------------|
B|--------------------|
G|------------9-------|
D|-5-5-5--5-5---------|
A|-5-5-5--5-5---------|
D|-5-5-5--5-5---------|

e|--------------------|
B|--------------------|
G|------------9-(x2)--|
D|-7-7-7--7-7---------|
A|-7-7-7--7-7---------|
D|-7-7-7--7-7---------|

e|--------------------|
B|--------------------|
G|--------------------|
D|-7-7-7---7--7--7----|
A|-7-7-7---7--7--7----|
D|-7-7-7---7--7--7----|

e|--------------------------------------------------------------------------|
B|--------------------------------------------------------------------------|
G|--------------------------------------------------------------------------|
D|--------------------------------------------------------------------------|
A|--------------------------------------------------------------------------|
D|-8p0-0-0-0-0--8p0-0-0-0-0--8p0-0-0-(x3)-----------------------------------|

e|--------------------------------------------------------------------------|
B|--------------------------------------------------------------------------|
G|--------------------------------------------------------------------------|
D|--------------------------------------------------------------------------|
A|--------------------------------------------------------------------------|
D|-8p0-0-0-0-0--8p0-0-0-0-0--8-8-8-8-8-8------------------------------------|

e|--------------------------------------------------------------------------|
B|--------------------------------------------------------------------------|
G|--------------------------------------------------------------------------|
D|--------------------------------------------------------------------------|
A|--------------------------------------------------------------------------|
D|-8p0-0-0-0-0--8p0-0-0-0-0--8p0-0-0-(x3)-----------------------------------|

e|--------------------------------------------------------------------------|
B|--------------------------------------------------------------------------|
G|--------------------------------------------------------------------------|
D|--------------------------------------------------------------------------|
A|--------------------------------------------------------------------------|
D|-8p0-0-0-0-0--8p0-0-0-0-0--8-8-8-8-8-8------------------------------------|


Verse

Guitar 1 - distortion

e|--------------------------------------------------------------------------|
B|------------------------------------------------------------------------o-|
G|--------------------------------------------------------------------------|
D|--------------------------------------------------------------------------|
A|-8p5-5-5-5-5--8p5-5-5-5-5--8p5-5-5--------------------------------------o-|
D|--------------------------------------------------------------------------|
PM ...........  ...........  .......


Timing changes to 5/4 for one bar here

e|-------------------------|
B|-------------------------|
G|-------------------------|
D|-------------------------|
A|-8p5-5-5-5-5-5-5---------|
D|-------------------------|
PM ...............

e|--------------------------------------------------------------------------|
B|------------------------------------------------------------------------o-|
G|--------------------------------------------------------------------------|
D|--------------------------------------------------------------------------|
A|-8p7-7-7-7-7--8p7-7-7-7-7--8p7-7-7--------------------------------------o-|
D|--------------------------------------------------------------------------|
PM ...........  ...........  .......

e|--------------------------------------------------------------------------|
B|------------------------------------------------------------------------o-|
G|--------------------------------------------------------------------------|
D|--------------------------------------------------------------------------|
A|-8h10-10-10-10-10--8h10-10-10-10-10--8h10-10-10-------------------------o-|
D|--------------------------------------------------------------------------|
PM ................  ................  ..........


Timing changes to 5/4 for one bar here
e|-------------------------|
B|-------------------------|
G|-------------------------|
D|-------------------------|
A|-8h10-10-10-10-10-10-10--|
D|-------------------------|
PM ......................

e|--------------------------------------------------------------------------|
B|------------------------------------------------------------------------o-|
G|--------------------------------------------------------------------------|
D|--------------------------------------------------------------------------|
A|-10h12-12-12-12-12--10h12-12-12-12-12--10h12-12-12----------------------o-|
D|--------------------------------------------------------------------------|
PM .................  .................  ...........


Chorus

Guitar 1 - distortion

e|--------------------------------------------------------------------------|
B|--------------------------------------------------------------------------|
G|--------------------------------------------------------------------------|
D|--------------------------------------------------------------------------|
A|--------------------------------------------------------------------------|
D|-7p3-3-3-3-3--7p3-3-3-3-3--7p3-3-3-(x3)-----------------------------------|

e|--------------------------------------------------------------------------|
B|--------------------------------------------------------------------------|
G|--------------------------------------------------------------------------|
D|--------------------------------------------------------------------------|
A|--------------------------------------------------------------------------|
D|-9h10-10-10-10-10--9h10-10-10-10-10--9h10-10-10---------------------------|

e|--------------------------------------------------------------------------|
B|--------------------------------------------------------------------------|
G|--------------------------------------------------------------------------|
D|--------------------------------------------------------------------------|
A|--------------------------------------------------------------------------|
D|-8p5-5-5-5-5--8p5-5-5-5-5--8p5-5-5-(x3)-----------------------------------|

e|--------------------------------------------------------------------------|
B|--------------------------------------------------------------------------|
G|--------------------------------------------------------------------------|
D|--------------------------------------------------------------------------|
A|--------------------------------------------------------------------------|
D|-8p0-0-0-0-0-8p0-0-0-0-0-8p0-0-0------------------------------------------|


Repeat Chorus once

Guitar 2

e|-------------------------|
B|-10--11--10--11--10------|
G|-------------------------|
D|-------------------------|
A|-------------------------|
D|-------------------------|
ST ..................


Guitar 1 - distortion + whammy (this section may be a little confusing, listen to the 
song to get the feel for it)

e|-9tr10-9-9tr10-9-10--9tr10-9-9tr10-9-10-----------------------------------|
B|--------------------------------------------------------------------------|
G|--------------------------------------------------------------------------|
D|--------------------------------------------------------------------------|
A|--------------------------------------------------------------------------|
D|--------------------------------------------------------------------------|
   ^     = ^     = ^ = ^     = ^     = ^

e|-10tr11-10-10tr11-10-11--10tr11-10-10tr11-10-11---------------------------|
B|--------------------------------------------------------------------------|
G|--------------------------------------------------------------------------|
D|--------------------------------------------------------------------------|
A|--------------------------------------------------------------------------|
D|--------------------------------------------------------------------------|
   ^      =  ^      =  ^ = ^      =  ^      =  ^


Guitar 2 - overdrive

e|--------------------------------------------------------------------------|
B|-10--11--10--11--10-(x2)--8--8--8--8--8-(x2)------------------------------|
G|--------------------------------------------------------------------------|
D|--------------------------------------------------------------------------|
A|--------------------------------------------------------------------------|
D|--------------------------------------------------------------------------|
ST ..................       .............

Guitar 1 - distortion + whammy (this section may be a little confusing, listen to the 
song to get the feel for it)

e|-9tr10-9-9tr10-9-10--9tr10-9-9tr10-9-10-----------------------------------|
B|--------------------------------------------------------------------------|
G|--------------------------------------------------------------------------|
D|--------------------------------------------------------------------------|
A|--------------------------------------------------------------------------|
D|--------------------------------------------------------------------------|
   ^     = ^     = ^ = ^     = ^     = ^

e|-10tr11-10-10tr11-10-11--10tr11-10-10tr11-10-11---------------------------|
B|--------------------------------------------------------------------------|
G|--------------------------------------------------------------------------|
D|--------------------------------------------------------------------------|
A|--------------------------------------------------------------------------|
D|--------------------------------------------------------------------------|
   ^      =  ^      =  ^ = ^      =  ^      =  ^


Guitar 2 - overdrive

e|--------------------------------------------------------------------------|
B|-10--11--10--11--10-(x2)--8--8--8--8--8-(x2)------------------------------|
G|--------------------------------------------------------------------------|
D|--------------------------------------------------------------------------|
A|--------------------------------------------------------------------------|
D|--------------------------------------------------------------------------|
ST ..................       .............


Outro

Guitar 1

e------|
B------|
G------|
D-0----|
A-0----|
D-0----|


That's all folks, email me any comments or corrections, or just leave them below
comments
We did not receive enough feedback on this tab! Please rate:
print report bad tab
1 2 3 4 5
I want to post or [tab]
guest
You may want to rate the tab now too:
select rating
Please do not post tabs as comments. Select "correction" instead!