Oops, an error
Loading. Please wait.

Black Holes And Revelations Bass Tab

by Muse
ver1
ver1

Album

More versions @911Tabs.com
20,640 views 6 this week
3 commentsread comments
1 2 3 4 5
not so good
x 8
add to favorites launch autoscroll
font size
0
reset
Autoscroll
+/-
esc
set tempo
stop
Contributor
Difficulty
novice
WARNING: You are trying to view
                                    content from Ultimate-Guitar.com
                                    in an unauthorized application,
                                    which is prohibited.

                                    Please use an official Ultimate
                                    Guitar Tabs application for iPhone,
                                    iPad or Android to access legitimate
                                    chords, guitar, bass, and drum tabs
                                    from Ultimate-Guitar.com database.

                                    Type "ultimate guitar tabs" in Apple
                                    App Store's or Android Market's
                                    search to find the application.
OK, i didnt tab this myself at all, cos they've all already been done, and im not good enough to tab tabs like these.

Track List

1.Take A Bow
2.Starlight
3.Supermassive Black Hole
4.Map Of The Ploblematique
5.Soldier's Poem
6.Invincible
7.Assasin
8.Exo-Politics
9.City Of Delusion
10.Hoodoo
11.Knights Of Cydonia

Take A Bow

No bass until 1:42

Verse:
("And our freedom's consuming itself" ... "Take a bow")
C|--------------------------------------------------|
G|--------------------------------------------------|
D|--8-8-8-4-4-4-3-3-3-3-3-3-8-8-8-4-4-4-6-6-6-6-6-6-|
A|--------------------------------------------------|
E|-6-6-6-2-2-2-1-1-1-1-1-1-6-6-6-2-2-2-4-4-4-4-4-4--|
B|--------------------------------------------------|

C|----------------------------------------------------------------|
G|---------11-11-11-10-10-10-10-10-10--------11-11-11-8-8-8-8-8-8-|
D|--8-8-8-----------------------------8-8-8-----------------------|
A|--------9--9--9--8--8--8--8--8--8---------9--9--9--6-6-6-6-6-6--|
E|-6-6-6-----------------------------6-6-6------------------------|
B|----------------------------------------------------------------|

2:04 Octave Solo Thing:
[Note: THIS is what you need a six string Bass or a 24 fret 4 string for!]
(Play after the word "Bow" echoes)
C|---------------------------------------------------------17--17--17--22--22--22-|
G|-----------------------10-10-10--14--14--14--17--17--17-------------------------|
D|--3-3-3-7-7-7-10-10-10---------------------------------15--15--15--20--20--20---|
A|----------------------8--8--8--12--12--12--15--15--15---------------------------|
E|-1-1-1-5-5-5-8--8--8------------------------------------------------------------|
B|--------------------------------------------------------------------------------|

Post-Solo:
[Note: Played straight on from the Octave Solo]
C|--------------------------------------------------------------------------|
G|--10-10-10----------10-10-10----------10-10-10----------10-10-10-10-10-10-|
D|-----------11-11-11----------11-11-11----------11-11-11-------------------|
A|-8--8--8-----------8--8--8-----------8--8--8-----------8--8--8--8--8--8---|
E|----------9--9--9-----------9--9--9-----------9--9--9---------------------|
B|--------------------------------------------------------------------------|

C|----------------------------------------------------------------------------|  <
G|--10-10-10-10-10-10-------------------10-10-10-10-10-10---------------------|  
D|--------------------11-11-11-11-11-11-------------------11-11-11-11-11-11---|  < Play this
A|----------------------------------------------------------------------------|  < twice
E|----------------------------------------------------------------------------|  <
B|----------------------------------------------------------------------------|  <

Pre-Chorus Riff:
[Note: Slower rhythm, an easier part of the song]
C|----------------------------------------------------------------|
G|----------------------------------------------------------------|
D|----------------------------------------------------------------|
A|-1-------1-------1-------1--------6-------6-------6-------6-----|
E|-----2-------2-------2-------2--------7-------7-------7-------7-|
B|----------------------------------------------------------------|

Chorus Part One:
[Note: Starts around 3:00 in, follows the rhythm of the Pre-Chorus Riff]
("Death, you bring death" ... "And destruction to all that you touch")
C|--------------------------|
G|--------------------------|
D|--------------------------|
A|--------------------------|
E|-4---0---4---0---4/12---4-|
B|--------------------------|

Note: The rest of tab is hard to put with lyrics, so I'll put rough timings instead

3:10: [x4]
[Note: Listen for the rhythm of the notes, not too hard]
C|----------------|
G|----------------|
D|-------6\-------|
A|-----6---(1)/7--|
E|---4------------|
B|----------------|

3:20:
[Note: Listen again for the rhythm, same riff as before moved a string up]
C|------------|
G|-----6\-----|
D|---6----1/7-|
A|-4----------|
E|------------|
B|------------|

3:31: [x4]
[Note: Yeah, for all these end parts, the trick is in the rhythm, learn that and you've 
it ;)]
C|--------------|
G|--------------|
D|-----4--------|
A|---4---5/17\~-|
E|-2------------|
B|--------------|

3:42: [x4]
C|---------------|
G|---------------|
D|-----9\--------|
A|---9----2-2/10-|
E|-7-------------|
B|---------------|

3:52:
[Note: The notes in this part are NOT played singularly, play the notes multiple times 
fit in with the song, I'm not sure how many times]
C|------------|  <
G|------------|  <
D|----4--5--2-|  < Play this
A|-2----------|  < twice
E|------------|  <
B|------------|  <

C|------------|  <
G|------------|  <
D|-9--4--5--2-|  < Play this
A|------------|  < twice
E|------------|  <
B|------------|  <

Outro - 4:03:
C|-------------|  <
G|-------------|  <
D|-------------|  < Play this
A|-22--2---22--|  < twice
E|---22--22--2-|  <
B|-------------|  <

C|---------------|
G|---------------|
D|---------------|
A|-22--2---2--3~-|
E|---22--22------|
B|---------------|

2.Starlight

Intro
G|-----------------|
D|-----------------|  x4
A|-----------------|
E|-7-7-7-7-7-7-7-7-|


Verse
G|---------------------------------              |
D|---------------------------------              |
A|-------------------------------9-              |
E|-7-7-7-7-7-7-7-7-9-9-9-9-9-7-9---              |
                                                 | x10
G|-----------------------------------------      |
D|-----------------------------------------      |
A|-11-11-11-11-11-11-11-11-7-7-7-7-7-6-7-9-      |
E|-----------------------------------------      |


Chorus
G|----------------------------------------------|
D|----------------------------------------------|
A|-4--4--4--4-------------6--6--6--6------------|
E|------------2--2--2--2-------------4--4--4--4-|

G|----------------------------------------------|
D|----------------------------------------------|
A|-0--0--0--0-------------0--0--0--0-6--6--6--6-|
E|------------0--0--0--0------------------------|

G|---
D|---
A|---
E|-4-


Bridge(Steadily louder)
G|-----------------------------------------------------------------|
D|-----------------------------------------------------------------|
A|-----------------6-6-6-6-6-6-6-6-4-4-4-4-4-4-4-4-2-2-2-2-2-2-2-2-|
E|-4-4-4-4-4-4-4-4-------------------------------------------------|

G|-----------------------------------------------------------------|
D|-----------------------------------------------------------------|
A|-----------------6-6-6-6-6-6-6-6-7-7-7-7-7-7-7-7-9-9-9-9-9-9-9-9-|
E|-4-4-4-4-4-4-4-4-------------------------------------------------|


Repeat Intro
G|-----------------|
D|-----------------|  x4
A|-----------------|
E|-7-7-7-7-7-7-7-7-|


Verse
G|---------------------------------              |
D|---------------------------------              |
A|-------------------------------9-              |
E|-7-7-7-7-7-7-7-7-9-9-9-9-9-7-9---              |
                                                 | x4
G|-----------------------------------------      |
D|-----------------------------------------      |
A|-11-11-11-11-11-11-11-11-7-7-7-7-7-6-7-9-      |
E|-----------------------------------------      |


2nd Chorus
G|----------------------------------------------|
D|----------------------------------------------|
A|-4--4--4--4-------------6--6--6--6------------|
E|------------2--2--2--2-------------4--4--4--4-|

G|----------------------------------------------|
D|----------------------------------------------|
A|-0--0--0--0-------------0--0--0--0-6--6--6--6-|
E|------------0--0--0--0------------------------|

G|----------------------------------------------|
D|----------------------------------------------|
A|------------6--6--6--6--7--7--7--7-2--2--2--2-|
E|-4--4--4--4-----------------------------------|

G|----------------------------------------------|
D|----------------------------------------------|
A|------------6--6--6--6--7--7--7--7-2--2--2--2-|
E|-4--4--4--4-----------------------------------|

G|---------------------------------------------------------------|
D|---------------------------------------------------------------|
A|----------------6-6-6-6-6-6-6-6-7-7-7-7-7-7-7-72-2-2-2-2-2-2-2-|
E|-4-4-4-4-4-4-4-4-----------------------------------------------|

G|---------------------------------------------------------------|
D|---------------------------------------------------------------|
A|----------------6-6-6-6-6-6-6-6-7-7-7-7-7-7-7-79-9-9-9-9-9-9-9-|
E|-4-4-4-4-4-4-4-4-----------------------------------------------|


Outro
G|---------------------------------              |
D|---------------------------------              |
A|-------------------------------9-              |
E|-7-7-7-7-7-7-7-7-9-9-9-9-9-7-9---              |
                                                 | x3
G|-----------------------------------------      |
D|-----------------------------------------      |
A|-11-11-11-11-11-11-11-11-7-7-7-7-7-6-7-9-      |
E|-----------------------------------------      |

G|----
D|----
A|----
E|-7~-

3.Supermassive Black Hole

Intro riff:

G----------------|----------------|----------------|----------------|
D----------------|----------------|----------------|----------------|
A----------------|----------------|----------------|----------------|
E-0--------------|----------------|-0--------------|----------------|

G----------------|----------------|----------------|----------------|
D----------------|----------------|----------------|----------------|
A----------------|----------------|----------------|----------------|
E-0--------------|----------------|-0--------------|----------------|

G----------------|----------------|----------------|-----------------|
D----------------|----------------|----------------|-----------------|
A----------------|----------------|----------------|-----------------|
E-0-0-3-0-0-3-3-3|-0-0-3-0-0-5-5-3|-0-0-3-0-0-3-3-3|-0-0-3-0-0-5-5-7-|


G----------------|----------------|----------------|----------------|
D----------------|----------------|----------------|----------------|
A----------------|----------------|----------------|----------------|
E-0-0-3-0-0-3-3-3|-0-0-3-0-0-5-5-3|-0-0-3-0-0-3-3-3|-0-0-3-0--------|


VERSE 1

G----------------|----------------|----------------|----------------|
D----------------|----------------|----------------|----------------|
A----------------|----------------|----------------|----------------|
E-0--------------|----------------|----------------|----------------|

G----------------|----------------|----------------|----------------|
D----------------|----------------|----------------|----------------|
A----------------|----------------|----------------|----------------|
E----------------|----------------|----------------|----------------|
(easy, no?)

CHORUS (doublemuff)
oooooooooooooooooooaaaaaaaaaaaaaaaaaaaaaaah you set my soul alight
G----------------|----------------|----------------|-----------------|
D-----7-----7-7-6|-----5----------|-----9-----8-7-5|-----------------|
A----------------|----------------|----------------|-----------------|
E-5-5---5-5------|-3-3---3-3-5-5-6|-7-7---7-7------|-0-0-0-2-2-3-3-4-|

G----------------|----------------|----------------|-----------------|
D-----7-----7-7-6|-----5----------|-----9-----8-7-5|-----------------|
A----------------|----------------|----------------|-----------------|
E-5-5---5-5------|-3-3---3-3-5-5-6|-7-7---7-7------|---0---2---3---4-|

glaciersmelting   dead of night    superstarssucked supermassive
G----------------|----------------|----------------|-----------------|
D-----7-----7-7-6|-----5----------|-----9-----8-7-5|-----------------|
A----------------|----------------|----------------|-----------------|
E-5-5---5-5------|-3-3---3-3-5-5-6|-7-7---7-7------|-0-0-0-2-2-3-3-4-|

glaciersmelting   dead of night    superstarssucked intothesupermassive
G----------------|----------------|----------------|-----------------|
D-----7-----7-7-6|-----5----------|-----9-----8-7-5|---9-9-8-7-7-5-4-|
A----------------|----------------|----------------|-----------------|
E-5-5---5-5------|-3-3---3-3-5-5-6|-7-7---7-7------|-----------------|

VERSE 2
G----------------|----------------|----------------|----------------|
D----------------|----------------|----------------|----------------|
A----------------|----------------|----------------|----------------|
E-0--------------|----------------|-0--------------|----------------|

G----------------|----------------|----------------|----------------|
D----------------|----------------|----------------|----------------|
A----------------|----------------|----------------|----------------|
E-0--------------|----------------|-0--------------|----------------|


CHORUS

POSTCHORUS
(SUPERMASSIVE BLACK HOLE)
G----------------|----------------|----------------|----------------|
D----------------|----------------|----------------|----------------|
A----------------|----------------|----------------|----------------|
E-0--------------|----------------|-0--------------|----------------|

G----------------|----------------|----------------|----------------|
D----------------|----------------|----------------|----------------|
A----------------|----------------|----------------|----------------|
E-0--------------|----------------|-0--------------|----------------|

BRIDGE/SOLO
G----------------|----------------|----------------|-----------------|
D----------------|----------------|----------------|-----------------|
A----------------|----------------|----------------|-----------------|
E-0-0-3-0-0-3-3-3|-0-0-3-0-0-5-5-3|-0-0-3-0-0-3-3-3|-0-0-3-0-0-5-5-7-|


G----------------|----------------|----------------|----------------|
D----------------|----------------|----------------|----------------|
A----------------|----------------|----------------|----------------|
E-0-0-3-0-0-3-3-3|-0-0-3-0-0-5-5-3|-0-0-3-0-0-3-3-3|-0-0-3-0--------|

CHORUS

POSTCHORUS

4.Map Of The Ploblematique

INTRO

This bit starts up as the drums do but very quiet at first.  Build the volume up over
first bar.

G|-17-17-17-17-17-17-17-17-17-17-17-17-17-17-17-17-|-17-17-17-17-17-17-17-17-17-17-17-17-19-19-19-19-|
D|-------------------------------------------------|-------------------------------------------------|
A|-------------------------------------------------|-------------------------------------------------|
E|-------------------------------------------------|-------------------------------------------------|

G|-20-20-20-20-20-20-20-20-20-20-20-20-20-20-20-20-|-20-20-20-20-20-20-20-20-20-20-20-20-20-20-20-20-|
D|-------------------------------------------------|-------------------------------------------------|
A|-------------------------------------------------|-------------------------------------------------|
E|-------------------------------------------------|-------------------------------------------------|

G|-20-20-20-20-20-19-19-17-19-19-19-19-19-17-17-15-|-17-17-17-17-17-15-15----------------------------|
D|-------------------------------------------------|----------------------18-18-18-18-18-18-17-17-17-|
A|-------------------------------------------------|-------------------------------------------------|

x2


VERSE

G|------------------------------------------------------------------|
D|---------------------------------66666666666666663333333333333333-|
A|-33333333333333336666666666666666---------------------------------| play this pretty
all the way through
E|------------------------------------------------------------------| listen out for breaks

G|----------------------------------------------------------------------------------|
D|----------------------------------------------------------------------------------|
A|-33333333333333336666666666666666111111111111111111111111111111118888888888888888-|
also be played like this
E|------------------------------------------------------------------------------------|
11-11-11 not 1-1-1-1-1-1--------------------------------------------------------------|


Outro
G|---------------------------------|--------------------------------|-------------------|-----------------|
D|-10101010101010101010101010101010|10101010101010101010101010101010|101010-------------|-----------------|
A|---------------------------------|--------------------------------|-------------------|-----------------|
E|---------------------------------|--------------------------------|------8888888888888|8888888888888888-|

G|-----|
D|-----|
A|-----|
E|-8\--| it's 10-10-10 not 1-0-1-0-1-0

5.Soldiers Poem

Intro
              
G|--------------|--------------|
D|--------7--7--|--------7--7--|
A|---5--5-------|---5--5-------|
E|--------------|--------------|

Verse

G|-------------|-------------|-------------|-----------------|
D|-------7--7--|-------------|-------------|-----------------|
A|--5--5-------|-------7--7--|-------5--5--|--5--5-4--4--2---|
E|-------------|--5--5-------|--3--3-------|-----------------|


G|-------------|-------4--4--|-------4--4--|---------------|
D|-------4--4--|--2--2-------|--2--2-------|--2--2-0--0----|
A|--2--2-------|-------------|-------2--2--|---------------|
E|-------------|-------------|-------------|---------------|

                         x2
G|-------------|-------------||
D|-------2--2--|-------2--2--||
A|--0--0-------|--0--0-------||
E|-------------|-------------||


G|----------------------------------|---------------------------------------------------------|
D|----------------------------4--4--|--5--5-------5--5-5--5-------4--4--5--5-5--5--7--7-------|
A|--5--5-2--2--0--0-0-0--2--2-------|-------5--5-------------5--5-----------------------------|
E|----------------------------------|---------------------------------------------------5--5--|


G|-------------|-------------|-----------|
D|-------7--7--|-------7--7--|-----------|
A|--5--5-------|--5--5-------|--5--------|
E|-------------|-------------|-----------|

G-----------------------------------------|
D-----------------------------------------|
A-1-00000-1-00000-1-0-1-00000-1-00000-1-0-|
D-----------------------------------------|

G-----------------------------------------|
D-----------------------------------------|
A-----------------------------------------|
D-8-55555-8-55555-8-5-8-55555-8-55555-8-5-|

G-----------------------------------------|
D-----------------------------------------|
A-1-00000-1-00000-1-0-1-00000-1-00000-1-0-|
D-----------------------------------------|

G-----------------------------------------|
D-----------------------------------------|
A-----------------------------------------|
D-8-55555-8-55555-8-5-8-55555-8-55555-8-5-|

slight pause

G------------------------------------------    |
D------------------------------------------    |
A------------------------------------------    |
D--x-00000-x-00000-x-0-x-00000-x-00000-x-0-    |
                                               | x2
G--------------------------------------------  |
D--------------------------------------------  |
A--------------------------------------------  |
D--x-00000-x-00000-x-0-x-00000-x-00000-888888  |

G------------------------------------------------------------ |
D------------------------------------------------------------ |
A--5555-555-55-5555-555-55-555-55-5333-333-33-3333-333-3/8888 |
D------------------------------------------------------------ |
                                                              |  x2
G---------------------------------------------------          |
D---------------------------------------------------          |
A-888-88-8888-888-88-88-8/5555-555-55-5555-555-55-0-          |
D---------------------------------------------------          |

G-------------------------------------------------|
D-------------------------------------------------|
A-------------------------------------3333-333-33-|
D-3333-333-33-3333-333-33-3333-333-33-------------|

G-------------------------------------------------|
D-------------------------------------------------|
A-------------------------------------------------|
D-5555-555-55-5555-555-55-5555-555-55-0000-000-00-|

G-------------------------------------------------|
D-------------------------------------------------|
A-------------------------------------3333-333-33-|
D-3333-333-33-3333-333-33-3333-333-33-------------|

G-------------------------------------------------|
D-------------------------------------------------|
A-------------------------------------5555-555-55-|
D-5555-555-55-5555-555-55-5555-555-55-------------|

G-----------------------------------------|
D-----------------------------------------|
A-1-00000-1-00000-1-0-1-00000-1-00000-1-0-|
D-----------------------------------------|

G-----------------------------------------|
D-----------------------------------------|
A-----------------------------------------|
D-8-55555-8-55555-8-5-8-55555-8-55555-8-5-|

G-----------------------------------------|
D-----------------------------------------|
A-1-00000-1-00000-1-0-1-00000-1-00000-1-0-|
D-----------------------------------------|

G---------------------|
D---------------------|
A---------------------|
D-8-55555-8-55555-8-5-|

slight pause

G------------------------------------------    |
D------------------------------------------    |
A------------------------------------------    |
D--x-00000-x-00000-x-0-x-00000-x-00000-x-0-    |
                                               | x2
G--------------------------------------------  |
D--------------------------------------------  |
A--------------------------------------------  |
D--x-00000-x-00000-x-0-x-00000-x-00000-888888  |

G-------------------------------------------------------------|
D-------------------------------------------------------------|
A--5555-555-55-5555-555-55-555-55-5333-333-33-3333-333-3/8888-|
D-------------------------------------------------------------|

G---------------------------------------------------|
D---------------------------------------------------|
A-888-88-8888-888-88-88-8/5555-555-55-5555-555-55---|
D---------------------------------------------------|

G-------------------------------------------------|
D-------------------------------------------------|
A-------------------------------------3333-333-33-|
D-3333-333-33-3333-333-33-3333-333-33-------------|

G-------------------------------------------------|
D-------------------------------------------------|
A-------------------------------------------------|
D-5555-555-55-5555-555-55-5555-555-55-0000-000-00-|

G-------------------------------------------------|
D-------------------------------------------------|
A-------------------------------------3333-333-33-|
D-3333-333-33-3333-333-33-3333-333-33-------------|

G-------------------------------------------------|
D-------------------------------------------------|
A-------------------------------------5555-555-55-|
D-5555-555-55-5555-555-55-5555-555-55-------------|

G-----------------------------------------|
D-----------------------------------------|
A-1-00000-1-00000-1-0-1-00000-1-00000-1-0-|
D-----------------------------------------|

G-----------------------------------------|
D-----------------------------------------|
A-----------------------------------------|
D-8-55555-8-55555-8-5-8-55555-8-55555-8-5-|

G-----------------------------------------|
D-----------------------------------------|
A-1-00000-1-00000-1-0-1-00000-1-00000-1-0-|
D-----------------------------------------|

G-------------------------------------------------|
D-------------------------------------------------|
A-------------------------------------------------|
D-8-55555-8-55555-8-5-8-55555-8-55555-8-5-----0~--|

8.Exo-Politics


Intro- guitar and drums only

Verse-
G-------------------------| x2
D-----------2-3-3-2h3p2---|
A-5-5-5-3-5-------------3-|
E-------------------------|

G--------------------------------------------------|
D--------------------------------------------------|
A-1-1--1-0-1-3-------------------------3-5-5-3-5-3-|
E--------------1-1--1-0-1-3--5-5-5-3-5-------------|

G----------------------------------------------------------|
D----------------------------------------------------------|
A-1-1--1-0-1-3---------------------------------------3-5---|
E--------------1-1--1-0-1-3--5-5-5-3-5-6-5-5-6-5-3-5-------|

Pre Chorus-
G---------------------------------------------------------|
D---------------------------------------------------------|
A---5-5-5-x-5-5---5-5-5-x-5-5---3-3-3-x-3-3---3-3-3-x-3-3-|
E---------------------------------------------------------|

G-----------------------------|
D-----------------------------|
A---8-8-8-x-8-8---------------|
E-----------------6-6-6-x-6-6-|

G----------------------------|
D-----------3----------------|
A-5-5-5-3-5---5-5-3-1-0-1-3--|
E----------------------------|

G---------------------------------------------------------|
D---------------------------------------------------------|
A---5-5-5-x-5-5---5-5-5-x-5-5---3-3-3-x-3-3---3-3-3-x-3-3-|
E---------------------------------------------------------|

G-----------------------------|
D-----------------8-8-8-x-8-8-|
A---8-8-8-x-8-8---------------|
E-----------------------------|

G----------------------------|
D-----------3----------------|
A-5-5-5-3-5---5-5-3-1-0-1-3--|
E----------------------------|

Chorus-
G------------------------------------------------------------------|
D------------------------------------------------------------------|
A-1-1-1-1-1-0-3-1--------------------------------3-5-5-5-5-3-5-3-5-|
E-----------------1-1-1-1-1-0-3-1--5-5-5-5-5-3-5-------------------|

G--------------------------------------------------------------------|
D--------------------------------------------------------------------|
A-1-1-1-1-1-0-3-1------------------------------------------------3-5-|
E-----------------1-1-1-1-1-0-3-1--5-5-5-5-5-3-5-6-5-5-5-6-5-3-5-----|

Guitar Solo-
G-------------------------| x2
D-----------2-3-3-2h3p2---|
A-5-5-5-3-5-------------3-|
E-------------------------|

G--------------------------------------------------|
D--------------------------------------------------|
A-1-1--1-0-1-3-------------------------3-5-5-3-5-3-|
E--------------1-1--1-0-1-3--5-5-5-3-5-------------|

G----------------------------------------------------------|
D----------------------------------------------------------|
A-1-1--1-0-1-3---------------------------------------3-5---|
E--------------1-1--1-0-1-3--5-5-5-3-5-6-5-5-6-5-3-5-------|

Verse-
G-------------------------| x2
D-----------2-3-3-2h3p2---|
A-5-5-5-3-5-------------3-|
E-------------------------|

G--------------------------------------------------|
D--------------------------------------------------|
A-1-1--1-0-1-3-------------------------3-5-5-3-5-3-|
E--------------1-1--1-0-1-3--5-5-5-3-5-------------|

G----------------------------------------------------------|
D----------------------------------------------------------|
A-1-1--1-0-1-3---------------------------------------3-5---|
E--------------1-1--1-0-1-3--5-5-5-3-5-6-5-5-6-5-3-5-------|

Pre Chorus-
G---------------------------------------------------------|
D---------------------------------------------------------|
A---5-5-5-x-5-5---5-5-5-x-5-5---3-3-3-x-3-3---3-3-3-x-3-3-|
E---------------------------------------------------------|

G-----------------------------|
D-----------------------------|
A---8-8-8-x-8-8---------------|
E-----------------6-6-6-x-6-6-|

G----------------------------|
D-----------3----------------|
A-5-5-5-3-5---5-5-3-1-0-1-3--|
E----------------------------|

G---------------------------------------------------------|
D---------------------------------------------------------|
A---5-5-5-x-5-5---5-5-5-x-5-5---3-3-3-x-3-3---3-3-3-x-3-3-|
E---------------------------------------------------------|

G-----------------------------|
D-----------------8-8-8-x-8-8-|
A---8-8-8-x-8-8---------------|
E-----------------------------|

G----------------------------|
D-----------3----------------|
A-5-5-5-3-5---5-5-3-1-0-1-3--|
E----------------------------|

Chorus x2-
G------------------------------------------------------------------|
D------------------------------------------------------------------|
A-1-1-1-1-1-0-3-1--------------------------------3-5-5-5-5-3-5-3-5-|
E-----------------1-1-1-1-1-0-3-1--5-5-5-5-5-3-5-------------------|

G--------------------------------------------------------------------|
D--------------------------------------------------------------------|
A-1-1-1-1-1-0-3-1------------------------------------------------3-5-|
E-----------------1-1-1-1-1-0-3-1--5-5-5-5-5-3-5-6-5-5-5-6-5-3-5-----|

Outro-
G----------------------------------------------------|
D-----------2-3-3-2h3p2--------------2-3-3-2h3p2-----|
A-5-5-5-3-5-------------3--5-5-5-3-5-------------3-5-|
E----------------------------------------------------|

9.City Of Delusion

Guitar Intro

Verse 1

G||----------------|----------------|----------------|----------------|
D||----3---2--5-2--|----3---2--5-2--|----3---2--5-2--|----3---2--5-2--|
A||--5---4---------|--5---4---------|--5---4---------|--5---4---------|
E||----------------|----------------|----------------|----------------|

G||--------0--3-0--|----2-0-3--5-3--|----2---0--3-0--|----------------|
D||----3-2---------|--3-------------|--3---2---------|----3---2--5-2--|
A||--5-------------|----------------|----------------|--5---4---------|
E||----------------|----------------|----------------|----------------|

G||----------------|----------------|----------------|----------------|
D||----2---3--5-3--|----2---3--5-3--|----2---2--3-2--|----------------|
A||--0---1---------|--0---1---------|--0-------------|----5-----------|
E||----------------|----------------|------3---------|--1---0--3-6-5--|


Pre-Chorus

G||----------------|----------------|----------------|----------------|
D||----3---2--5-2--|----3---2--5-2--|----3---2--5-2--|----------------|
A||--5---4---------|--5---4---------|--5---4---------|--5-5-5---------|
E||----------------|----------------|----------------|----------------|


Chorus 1

G||-----------|-----------|-----------|
D||-----------|-----------|-----------|
A||--8-8-8----|--4-4-4----|--5-5-5----|
E||-----------|-----------|-----------|

G||-----------|-----------|-----------|
D||-----------|--5-5-5----|--3-3-3----|
A||-----------|-----------|-----------|
E||--5-5-5----|-----------|-----------|

G||-----------|-----------|-----------|
D||--2-2-2----|-----------|-----------|
A||-----------|--5-5-5----|-----------|
E||-----------|-----------|--5-5-5----|


G||---------------|---------------|---------------|
D||--5-5-5---5-5--|--3-3-3---3-3--|---------------|
A||---------------|---------------|--4-4-4---4-4--|
E||---------------|---------------|---------------|

G||---------------|---------------|---------------|
D||---------------|---------------|--5-5-5---5-5--|
A||--5-5-5---5-5--|---------------|---------------|
E||---------------|--5-5-5---5-5--|---------------|

G||---------------|---------------|---------------|
D||--3-3-3---3-3--|--2-2-2---2-2--|--0-0-0---0-0--|
A||---------------|---------------|---------------|
E||---------------|---------------|---------------|

End of Chorus

G||----------------|----------------|----------------|----------------|
D||----2---3--5-3--|----2---3--5-3--|----2---2--3-2--|----------------|
A||--0---1---------|--0---1---------|--0-------------|----5-----------|
E||----------------|----------------|------3---------|--1---0--3-6-5--|


Verse 2 (With The Ua Ua Effect)
                                                                       X2
G||----------------|----------------|----------------|----------------|
D||----3---2--5-2--|----3---2--5-2--|----3---2--5-2--|----3---2--5-2--|
A||--5---4---------|--5---4---------|--5---4---------|--5---4---------|
E||----------------|----------------|----------------|----------------|

G||--------0--3-0--|----2-0-3--5-3--|----2---0--3-0--|----------------|
D||----3-2---------|--3-------------|--3---2---------|----3---2--5-2--|
A||--5-------------|----------------|----------------|--5---4---------|
E||----------------|----------------|----------------|----------------|

G||----------------|----------------|----------------|----------------|
D||----2---3--5-3--|----2---3--5-3--|----2---2--3-2--|----------------|
A||--0---1---------|--0---1---------|--0-------------|----5-----------|
E||----------------|----------------|------3---------|--1---0--3-6-5--|

Pre-Chorus

G||----------------|----------------|----------------|----------------|
D||----3---2--5-2--|----3---2--5-2--|----3---2--5-2--|----------------|
A||--5---4---------|--5---4---------|--5---4---------|--5-5-5---------|
E||----------------|----------------|----------------|----------------|

Chorus 2

G||-----------|-----------|-----------|
D||-----------|-----------|-----------|
A||--8-8-8----|--4-4-4----|--5-5-5----|
E||-----------|-----------|-----------|

G||-----------|-----------|-----------|
D||-----------|--5-5-5----|--3-3-3----|
A||-----------|-----------|-----------|
E||--5-5-5----|-----------|-----------|

G||-----------|-----------|-----------|
D||--2-2-2----|-----------|-----------|
A||-----------|--5-5-5----|-----------|
E||-----------|-----------|--5-5-5----|


G||---------------|---------------|---------------|
D||--5-5-5---5-5--|--3-3-3---3-3--|---------------|
A||---------------|---------------|--4-4-4---4-4--|
E||---------------|---------------|---------------|

G||---------------|---------------|---------------|
D||---------------|---------------|--5-5-5---5-5--|
A||--5-5-5---5-5--|---------------|---------------|
E||---------------|--5-5-5---5-5--|---------------|

G||---------------|---------------|---------------|
D||--3-3-3---3-3--|--2-2-2---2-2--|--0-0-0---0-0--|
A||---------------|---------------|---------------|
E||---------------|---------------|---------------|


End of Chorus

G||----------------|----------------|----------------|----------------|
D||----2---3--5-3--|----2---3--5-3--|----2---2--3-2--|----------------|
A||--0---1---------|--0---1---------|--0-------------|----5-----------|
E||----------------|----------------|------3---------|--1---0--3-6-5--|


Guiar Solo


Intrumental PArt (Trumpet)

G||----------------|----------------|----------------|----------------|
D||----3---2--5-2--|----3---2--5-2--|----3---2--5-2--|----3---2--5-2--|
A||--5---4---------|--5---4---------|--5---4---------|--5---4---------|
E||----------------|----------------|----------------|----------------|

G||--------0--3-0--|----2-0-3--5-3--|----2---0--3-0--|----------------|
D||----3-2---------|--3-------------|--3---2---------|----3---2--5-2--|
A||--5-------------|----------------|----------------|--5---4---------|
E||----------------|----------------|----------------|----------------|

G||----------------|----------------|----------------|----------------|
D||----2---3--5-3--|----2---3--5-3--|----2---2--3-2--|----------------|
A||--0---1---------|--0---1---------|--0-------------|----5-----------|
E||----------------|----------------|------3---------|--1---0--3-6-5--|


Pre-Chorus

G||----------------|----------------|----------------|----------------|
D||----3---2--5-2--|----3---2--5-2--|----3---2--5-2--|----------------|
A||--5---4---------|--5---4---------|--5---4---------|--5-5-5---------|
E||----------------|----------------|----------------|----------------|

Chorus 3

G||-----------|-----------|-----------|
D||-----------|-----------|-----------|
A||--8-8-8----|--4-4-4----|--5-5-5----|
E||-----------|-----------|-----------|

G||-----------|-----------|-----------|
D||-----------|--5-5-5----|--3-3-3----|
A||-----------|-----------|-----------|
E||--5-5-5----|-----------|-----------|

G||-----------|-----------|-----------|
D||--2-2-2----|-----------|-----------|
A||-----------|--5-5-5----|-----------|
E||-----------|-----------|--5-5-5----|


G||---------------|---------------|---------------|
D||--5-5-5---5-5--|--3-3-3---3-3--|---------------|
A||---------------|---------------|--4-4-4---4-4--|
E||---------------|---------------|---------------|

G||---------------|---------------|---------------|
D||---------------|---------------|--5-5-5---5-5--|
A||--5-5-5---5-5--|---------------|---------------|
E||---------------|--5-5-5---5-5--|---------------|

G||---------------|---------------|---------------|
D||--3-3-3---3-3--|--2-2-2---2-2--|--0-0-0---0-0--|
A||---------------|---------------|---------------|
E||---------------|---------------|---------------|


End

G||----------------|----------------|----------------|----------------|
D||----2---3--5-3--|----2---3--5-3--|----2---2--3-2--|----------------|
A||--0---1---------|--0---1---------|--0-------------|----5-----------|
E||----------------|----------------|------3---------|--1---0--3-6-5--|


10.Hoodoo

11.Knights Of Cydonia

the beginning!
G||---------------------------------------|---a-----------------------------------|
D||---------------------------------------|---------------------------------------|
A||---------------------------------------|---------------------------------------|
E||--0---------2---------3----------------|--5--------5--------7------------------| x4


these figures are meant to be played with that 'gallopping' rhythm.
listen to the song for an idea.
G||-------------------------------------------------------------------------|
D||-------------------------------------------------------------------------|
A||-------------------------------------------------------------------------|
E||--0--------0--------0-------0--------0--------0--------0-------0---------|

G||-------------------------------------------------------------------------|
D||-------------------------------------------------------------------------|
A||--------------------3----------------2--------3--------6-----------------|
E||--0--------3----------------3----------------------------------3---------|

G||-------------------------------------------------------------------------|
D||-------------------------------------------------------------------------|
A||--3-------------------------6--------------------------6-----------------|
E||-----------3--------4----------------3--------4----------------3---------|

G||-------------------------------------------------------------------------|
D||-------------------------------------------------------------------------|
A||--3--------3--------3-------3--------3--------3--------3-------3---------|
E||-------------------------------------------------------------------------|

G||-------------------------------------------------------------------------|
D||-------------------------------------------------------------------------|
A||--3--------6----------------6--------------------------2-------6---------|
E||--------------------4----------------3--------4--------------------------|

G||-------------------------------------------------------------------------|
D||-------------------------------------------------------------------------|
A||-----------6--------7----------------6--------7----------------7---------|
E||--4-------------------------7--------------------------7-----------------|

G||-------------------------------------------------------------------------|
D||-------------------------------------------------------------------------|
A||-------------------------------------------------------------------------|
E||--4--------4--------4-------4--------4--------4--------4-------4---------|

G||-------------------------------------------------------------------------|
D||-------------------------------------------------------------------------|
A||--------------------7----------------6--------7--------------------------|
E||--4--------7----------------7--------------------------3-------7---------|

G||-------------------------------------------------------------------------|
D||-------------------------------------------------------------------------|
A||--7-----------------3----------------2--------3----------------2---------|
E||-----------7----------------3--------------------------3-----------------|

G||-------------------------------------------------------------------------|
D||-------------------------------------------------------------------------|
A||-------------------------------------------------------------------------|
E||--0--------0--------0-------0--------0--------0--------0-------0---------|

beginning riff again
G||---------------------------------------|---------------------------------------|
D||---------------------------------------|---------------------------------------|
A||---------------------------------------|---------------------------------------|
E||--0---------2---------3----------------|--5--------5--------7------------------| x4

G||-------------------------------------------------------------------------|
D||-------------------------------------------------------------------------|
A||-------------------------------------------------------------------------|
E||--0--------0--------0-------0--------0--------0--------0-------0---------|


the synth bit!  tap left and right hand, if you can tap you should be able to figure
it out soon.  not sure about positions, but notes are right.
G||--------------------------------9------|--------------------------------9------|
D||----------------------9------9---------|----------------------9------9---------|
A||--7-----7--10--7--10-----10------------|--7-----7--10--7--10-----10------------|
E||-----7---------------------------------|-----7---------------------------------|

G||--------------------------------7------|--------------------------------7------|
D||----------------------9------9---------|----------------------9------9---------|
A||--5-----5--9------9------9-------------|--5-----5---9------9------9------------|
E||-----7--------10-----------------------|-----7--------10-----------------------|

G||--------------------------------6------|--------------------------------6------|
D||----------------------7------7---------|----------------------7------7---------|
A||--4-----4--7------7------7-------------|--4-----4---7------7------7------------|
E||-----5---------9-----------------------|-----5---------9-----------------------|

G||--------------------------------9------|--------------------------------9------|
D||----------------------9------9---------|----------------------9------9---------|
A||--7-----7--10--7--10-----10------------|--7-----7--10--7--10-----10------------|
E||-----7---------------------------------|-----7---------------------------------|

G||--------------------------------9------|--------------------------------9------|
D||----------------------9------9---------|----------------------9------9---------|
A||--7-----7--10--7--10-----10------------|--7-----7--10--7--10-----10------------|
E||-----7---------------------------------|-----7---------------------------------|

G||--------------------------------7------|--------------------------------7------|
D||----------------------9------9---------|----------------------9------9---------|
A||--5-----5--9------9------9-------------|--5-----5---9------9------9------------|
E||-----7--------10-----------------------|-----7--------10-----------------------|

G||--------------------------------6------|--------------------------------6------|
D||----------------------7------7---------|----------------------7------7---------|
A||--4-----4--7------7------7-------------|--4-----4---7------7------7------------|
E||-----5---------9-----------------------|-----5---------9-----------------------|

G||--------------------------------9------|--------------------------------9------|
D||----------------------9------9---------|----------------------9------9---------|
A||--7-----7--10--7--10-----10------------|--7-----7--10--7--10-----10------------|
E||-----7---------------------------------|-----7---------------------------------|

G||--------------------------------9------|--------------------------------9------|
D||----------------------9------9---------|----------------------9------9---------|
A||--7-----7--10--7--10-----10------------|--7-----7--10--7--10-----10------------|
E||-----7---------------------------------|-----7---------------------------------|

G||--------------------------------11-----|--------------------------------11-----|
D||------------9------9--12--9--12--------|------------9------9--12--9--12--------|
A||--9-----9------9-----------------------|--9-----9------9-----------------------|
E||----10---------------------------------|----10---------------------------------|

G||--------------------------------14-----|--------------------------------14-----|
D||----------11----11--14--11--14---------|----------11----11--14--11--14---------|
A||-12----12----12------------------------|-12----12----12------------------------|
E||----12---------------------------------|----12---------------------------------|

G||---------------------9------9---12-----|---------------------9------9---12-----|
D||-----------9-----9------9--------------|-----------9-----9------9--------------|
A||-10----10----10------------------------|-10----10----10------------------------|
E||----12---------------------------------|----12---------------------------------|

G||---------------------9------9---12-----|---------------------9------9---12-----|
D||-----------9-----9------9--------------|-----------9-----9------9--------------|
A||-10----10----10------------------------|-10----10----10------------------------|
E||----12---------------------------------|----12---------------------------------|

G||--------------------------------16-----|--------------------------------16-----|
D||----------------------16----16---------|----------------------16----16---------|
A||-14----14--17--14--17----17------------|-14----14--17--14--17----17------------|
E||----14---------------------------------|----14---------------------------------|

G||--------------------------------18-----|--------------------------------18-----|
D||--------------------19------19---------|--------------------19------19---------|
A||-16----16-19-16-19------19-------------|-16----16-19-16-19------19-------------|
E||----17---------------------------------|----17---------------------------------|

G||--------------------------------21-----|--------------------------------21-----|
D||-----------17------17-21-17-21---------|-----------17------17-21-17-21---------|
A||-19----19------19----------------------|-19----19------19----------------------|
E||----19---------------------------------|----19---------------------------------|

the rock-out bit after the synth bit
G||-------------------------------------------------------------------------|
D||-------------------------------------------------------------------------|
A||--------------------------------------------------------------10---------|
E||--10h12-12-12---12-10h12-12-12---12-10h12-12-12---12-10h12-12------------|

G||-------------------------------------------------------------------------|
D||-------------------------------------------------------------------------|
A||------------------------------------------------------------5h-7--7------|
E||--10p-7--7--7---7--10p-7--7--7---7--10p-7--7--7---7--10p-7---------------|

G||-------------------------------------------------------------------------|
D||-------------------------------------------------------------------------|
A||---7p-0--0--0---0---0--0--0--0---0---0--0--0--0---0--7p--0---------------|
E||------------------------------------------------------------7p-6p-5------|

G||-------------------------------------------------------------------------|
D||-------------------------------------------------------------------------|
A||-------------------------------------------------------------------------|
E||---3p-0--0--0---0---3p-0--0--0---0---3p-0--0--0---0--3p--0h-5h-7---------|
x6

G||-------------------------------------------------------------------------|
D||-------------------------------------------------------------------------|
A||-------------------------------------------------------------------------|
E||---0--0--0--0---0---0--0--0--0---0---0--0--0--0---0--0---0--0--0--0---0--|
x3

finish with
G||-------------------------------------------------------------------------|
D||-------------------------------------------------------------------------|
A||-------------------------------------------------------------------------|
E||---0--0--0--0---0---0--0--0--0---0---0--0--0--0---0--0---0--5h-6h-7---0--|

comments
print report bad tab
3 comments total.
+1 reply
DiabeticBoy wrote on August 26 2007, 04:16 am

Don't make an album tab if it's not complete. And try crediting the authors when you acknowledge that you didn't make the tabs (*cough* my SMBH bass tab *cough*).

+1 reply
DiabeticBoy wrote on August 26 2007, 04:17 am

Some inaccurate tabs, incomplete.

-1 reply
bass_monster wrote on August 26 2007, 12:49 pm

er, nay

I want to post or [tab]
guest
You may want to rate the tab now too:
select rating
Please do not post tabs as comments. Select "correction" instead!