Oops, an error
Loading. Please wait.

Black Holes And Revelations Bass Tab

by Muse
ver2
ver2

Album

More versions @911Tabs.com
4,577 views 21 this week
no commentswrite comment
1 2 3 4 5
excellent!
x 4
add to favorites launch autoscroll
font size
0
reset
Autoscroll
+/-
esc
set tempo
stop
Contributor
Difficulty
intermediate
WARNING: You are trying to view
                                    content from Ultimate-Guitar.com
                                    in an unauthorized application,
                                    which is prohibited.

                                    Please use an official Ultimate
                                    Guitar Tabs application for iPhone,
                                    iPad or Android to access legitimate
                                    chords, guitar, bass, and drum tabs
                                    from Ultimate-Guitar.com database.

                                    Type "ultimate guitar tabs" in Apple
                                    App Store's or Android Market's
                                    search to find the application.
Band: Muse
Album: Black Holes And Revelations (2006)
Bassist: Chris Wolstenholme

Note:

Some of the following tabs are mine and some aren't. I wrote down names
so everything is fair. Thank You guys - You did great work on those tabs.

!!! If there are some mistakes please let me know about them before You rate this
tab. Leave Your message in comments. !!!

=============================================================================
01. Take A Bow
=============================================================================

Intro: [Optional]

G|--------|    |--------|    |--------|    |--------|    |--------|
D|--------|    |5~------|    |--------|    |--------|    |--------|
A|5~------|    |----6~--|    |3~------|    |3~------|    |3~------|
E|----6~--| x4 |--------| x4 |----4~--| x3 |--------|    |----4~--| x4

G|--------|    |--------|    |--------|    |--------|    |--------|
D|3~------|    |--------|    |--------|    |--------|    |--------|
A|----4~--|    |1~------|    |6~------|    |6~------|    |6~------|
E|--------| x4 |----2~--| x4 |----7~--| x4 |----4~--| x2 |--------|

Here starts bass.
Verse: [1:40]

G|--8---8---8-|------------|------------|------------|
D|------------|--9---9---9-|--8---8---8-|--8---8---8-|
A|6---6---6---|------------|------------|------------|
E|------------|7---7---7---|6---6---6---|6---6---6---|

G|--8---8---8-|------------|------------|------------|
D|------------|--9---9---9-|--6---6---6-|--6---6---6-|
A|6---6---6---|------------|------------|------------|
E|------------|7---7---7---|4---4---4---|4---4---4---|

G|------------|------------|------------|------------|
D|--8---8---8-|--4---4---4-|--3---3---3-|--3---3---3-|
A|------------|------------|------------|------------|
E|6---6---6---|2---2---2---|1---1---1---|1---1---1---|

G|------------|------------|--8---8---8-|--8---8---8-|
D|--8---8---8-|--4---4---4-|------------|------------|
A|------------|------------|6---6---6---|6---6---6---|
E|6---6---6---|2---2---2---|------------|------------|

G|------------|------------|------------|-10--10--10-|
D|--3---3---3-|--7---7---7-|-10--10--10-|------------|
A|------------|------------|------------|8---8---8---|
E|1---1---1---|5---5---5---|8---8---8---|------------|

G|--14--14--14|--17--17--17|------------|------------|
D|------------|------------|15--15--15--|19--19--19--|  
A|12--12--12--|15--15--15--|------------|------------|
E|------------|------------|------------|------------|

G|-10--10--10-|------------|    |-10--10--10-|
D|------------|-11--11--11-|    |------------|
A|8---8---8---|------------|    |8---8---8---|
E|------------|9---9---9---| x3 |------------| x2

G|-10--10--10-|------------|
D|------------|-11--11--11-|   
A|8---8---8---|------------|   
E|------------|9---9---9---| x4


G|--------|    |--------|    |--------|    |--------|
D|--------|    |--------|    |--------|    |--------|
A|--------|    |6~------|    |--------|    |--------|
E|6~--2~--| x4 |----7~--| x4 |4~--0~--| x3 |4~------|


G|-----------------------|    |-------------------------|
D|-----------------------|    |-------------------------|
A|-----------------------|    |-------------------------|
E|4--/16-16--\12--12--12\| x3 |4--/16-16--\12--12-12-12\|

G|-----------------------|    |-------------------------|
D|----------------19--19-|    |----------------19-19-19\|
A|4--/16-16--\12/--------|    |4--/16-16--\12/----------|
E|-----------------------| x3 |-------------------------|

G|----------------19--19-|    |----------------19-19-19\|
D|4--/16-16--\12/--------|    |4--/16-16--\12/----------|
A|-----------------------|    |-------------------------|
E|-----------------------| x3 |-------------------------|

G|------------------------|    
D|------------------------|    
A|2--/14-14--\10---/10-10-|    
E|---------------7--------| x4 

G|---------------------------|---------------------------| 
D|---------------------------|---------------------------|   
A|2-2-2/9-9-9-10-10-10\7-7-7\|2-2-2/9-9-9-10-10-10\7-7-7/|   
E|---------------------------|---------------------------| 

G|------------------------------|------------------------------|
D|------------------------------|------------------------------|
A|14-14-14\9-9-9-10-10-10\7-7-7/|14-14-14\9-9-9-10-10-10\7-7-7\|
E|------------------------------|------------------------------|

Ending::

G|--------------------|    |--------------------|--------------------|
D|--------------------|    |--------------------|--------------------|
A|2-2-----2-----2-2---|    |2-2-----2-----------|3~------------------|
E|----2-2---2-2-----2-| x2 |----2-2---2-2-2-----|--------------------|

=============================================================================
02. Starlight
=============================================================================

Intro:

G|----------------|
D|----------------|
A|14(x32)---------|
E|----------------|

Verse: [0:07 - 1:19]

G|------------------------------------------------|
D|---------------------------------------------13-|
A|14-14-14-14-14-14-14-16-16-16-16-16-16-14-16----|
E|------------------------------------------------|

G|13-13-13-13-13-13-13----------------------------|
D|---------------------14-14-14-14-14-14-13-14-16-|
A|------------------------------------------------|
E|------------------------------------------------|

Last verse before chorus: [1:19 - 1:26]

G|------------------------------------------------|
D|---------------------------------------------13-|
A|14-14-14-14-14-14-14-16-16-16-16-16-16-14-16----|
E|------------------------------------------------|

G|13-13-13-13-13-13-13----------------------------|
D|---------------------14-14-14-14-14-14-14-14-14\|
A|------------------------------------------------|
E|------------------------------------------------|

Chorus:

G|----------------------------------------------------------------|
D|----------------------------------------------------------------|
A|4-4-4-4-4-4-4-------------------6-6-6-6-6-6-6-------------------|
E|--------------2-2-2-2-2-2-2-2-2---------------4-4-4-4-4-4-4-4-4-|

G|----------------------------------------------------------------|--------|
D|----------------------------------------------------------------|--------|
A|0-0-0-0-0-0-0-------------------0-0-0-0-0-0-0-6-6-6-6-6-6-6-6-6-|--------|
E|--------------0-0-0-0-0-0-0-0-0---------------------------------|4\------|

[1:58] (fade in)

G|------------------------------------------------|
D|------------------------------------------------|
A|------6(x8)-7(x8)-------------6(x8)-7(x8)-9(x8)-|
E|4(x8)-------------7(x8)-4(x8)-------------------|

Bridge:

G|-----------|
D|-----------|
A|14(x32)----|
E|-----------|

Play verse and verse before chorus again, then play chorus and:

G|----------------------------------------------------|
D|----------------------------------------------------|
A|------6(x8)-7(x8)-------------6(x8)-7(x8)-----------|
E|4(x8)-------------7(x8)-4(x8)-------------7(x4)/19\-|

G|------------------------------------------------|
D|------------------------------------------------|
A|------6(x8)-7(x8)-------------6(x8)-7(x8)-9(x8)-|
E|4(x8)-------------7(x8)-4(x8)-------------------|

Ending: (octave lower)

G|----------------------------------------------------------------|    |---|
D|--------------------------------6-6-6-6-6-6-6-------------------|    |---|
A|------------------------------6---------------7-7-7-7-7-7-6-7-9-|    |---|
E|7-7-7-7-7-7-7-9-9-9-9-9-9-7-9-----------------------------------| x2 |7\-|

=============================================================================
03. Supermassive Black Hole
=============================================================================

This tab isn't mine and tabbed by Brady Clarke (DiabeticBoy on MuseLive
forums, TheRealSlimBrady on main muse) bradyclarke@iinet.net.au 

Intro:

G|----------------|----------------|----------------|----------------|
D|----------------|----------------|----------------|----------------|
A|----------------|----------------|----------------|----------------|
E|0---------------|----------------|0---------------|----------------| x2

Riff:

G|----------------|----------------|----------------|----------------|
D|----------------|----------------|----------------|----------------|
A|----------------|----------------|----------------|----------------|
E|0-0-3-0-0-3-3-3-|0-0-3-0-0-5-5-3-|0-0-3-0-0-3-3-3-|0-0-3-0-0-5-5-7-|

G|----------------|----------------|----------------|----------------|
D|----------------|----------------|----------------|----------------|
A|----------------|----------------|----------------|----------------|
E|0-0-3-0-0-3-3-3-|0-0-3-0-0-5-5-3-|0-0-3-0-0-3-3-3-|0-0-3-0---------|

Verse: Play 0 on E just for first bar.

Chorus:

G|---------------|----------------|----------------|-----------------|
D|----7-----7-7-6|-----5----------|-----9-----8-7-5|-----------------|
A|---------------|----------------|----------------|-----------------|
E|5-5---5-5------|-3-3---3-3-5-5-6|-7-7---7-7------|-0-0-0-2-2-3-3-4-|

G|---------------|----------------|----------------|-----------------|
D|----7-----7-7-6|-----5----------|-----9-----8-7-5|-----------------|
A|---------------|----------------|----------------|-----------------|
E|5-5---5-5------|-3-3---3-3-5-5-6|-7-7---7-7------|---0---2---3---4-|

G|---------------|----------------|----------------|-----------------|
D|----7-----7-7-6|-----5----------|-----9-----8-7-5|-----------------|
A|---------------|----------------|----------------|-----------------|
E|5-5---5-5------|-3-3---3-3-5-5-6|-7-7---7-7------|-0-0-0-2-2-3-3-4-|

G|---------------|----------------|----------------|-----------------|
D|----7-----7-7-6|-----5----------|-----9-----8-7-5|-----------------|
A|---------------|----------------|----------------|-----------------|
E|5-5---5-5------|-3-3---3-3-5-5-6|-7-7---7-7------|-----------------|

Verse: Play 0 on E string every second bar.

Then play riff and chorus once again and end song with some 0 on E string
again.

=============================================================================
04. Map Of The Problematique
=============================================================================

Tabbed by UG user "PitchImperfect". I made some corrections on verse
and outro parts.

Intro:

G|17(x28)--19(x4)--20(x32)--|
D|--------------------------|
A|--------------------------|
E|--------------------------|

G|20(x5)--19(x2)--17--19(x5)-17(x2)--15--17(x5)--15(x2)-----------------|
D|-------------------------------------------------------18(x5)--17(x3)-|
A|----------------------------------------------------------------------|
E|----------------------------------------------------------------------| x2

Verse 1: [0:38 - 1:39]

G|----------------------------|
D|--------------6(x8)--3(x8)--|
A|3(x8)--6(x8)----------------|
E|----------------------------|

Verse 2: (twice faster) [1:39 - 2:11]

G|--------------------------------|
D|----------------6(x16)--3(x16)--|
A|3(x16)--6(x16)------------------|
E|--------------------------------|

Short pause, then play Verse2: [2:19 - 4:05] and the outro:

G|------------------|
D|10(x32)\----------|
A|---------3(x32)\--|
E|------------------|

=============================================================================
05. Soldier's Poem
=============================================================================

G|----------|----------|
D|-----7-7--|-----7-7--|
A|5--5------|5--5------|
E|----------|----------|

G|----------|----------|----------|----------|----------|  |
D|-----7-7--|----------|----------|----------|-----4-4--|  |
A|5--5------|-----7-7--|5--5------|5--5-4-4--|2--2------|  |
E|----------|5--5------|-----3-3--|----------|----------|  |
                                                           | x2
G|-----4-4--|----------|----------|----------|----------|  |
D|2--2------|2--2------|2--2-0-0--|----------|----------|  |
A|----------|-----2-2--|----------|0--0-7-7--|0--0-7-7--|  |
E|----------|----------|----------|----------|----------|  |


G|----------|----------|----------|----------|----------|
D|----------|----------|-----4-4--|5--5------|5--5-5-5--|
A|5--5-2-2--|0--0-0-0--|2--2------|-----5-5--|----------|
E|----------|----------|----------|----------|----------|

G|----------|----------|----------|----------|----------|----------|
D|-----4-4--|5--5-5-5--|7--7------|-----7-7--|-----7-7--|----------|
A|5--5------|----------|-----7-7--|5--5------|5--5------|5~--------|
E|----------|----------|----------|----------|----------|----------|

=============================================================================
06. Invincible
=============================================================================

This tab is very similar to TJ1991's tab because I also retune only one
string to play this song, but here are some differences/corrections.

Intro:

G|--------|
C|--------|
A|33333---|
E|--------| x12

Verse 1:

G|--------------------------------------------------------|
C|----------------------------55555--55555--55555--55555--|
A|33333--33333--33333--33333------------------------------|
E|--------------------------------------------------------|

G|--------------------------------------------------------|
C|--------------77777--77777----------------99999--99999--|
A|55555--55555----------------77777--77777----------------|
E|--------------------------------------------------------|

G|--------------------------------------------------------|
C|--------------77777--77777------------------------------|
A|88888--88888--------------------------------------------|
E|----------------------------88888--88888--88888--88888--|


G|--------------------------------------------------------|
C|--------------------------------------------------------|
A|---------------------55557--88888--88888--88888--88887--|
E|88888--88888--88888-------------------------------------|

G|--------------------------------------------------------|
D|--------------77777--77775-------------8--99999--99997--|
A|55555--55558----------------77777--7777-----------------|
E|--------------------------------------------------------|

G|--------------------------------------------------------|
C|--------------------------------------------------------|
A|88888--88885----------------33333--33333--33333--33333--|
E|--------------33333--33333------------------------------|

Chorus 1:

G|--------------------------------------------------------|
C|55555--55555--77777--77777----------------55555--55555--|
A|----------------------------33333--33333----------------|
E|--------------------------------------------------------|

G|--------------------------------------------------------|
C|--------------77777--77777----------------99999--99999--|
A|55555--55555----------------77777--77777----------------|
E|--------------------------------------------------------|

G|--------------------------------------------------------|
C|--------------77777--77777------------------------------|
A|88888--88888--------------------------------------------|
E|----------------------------88888--88888--88888--88888--|

G|--------|
C|--------|
A|--------|
E|88888---| x8

Verse 2:

G|----------------------------------------------------------------|
C|----------------------------------------7-7-7-5-------8-9-9-9-7-|
A|------------5-7-8-8-8-8-8-8-8-7-5-5-5-8---------7-7-7-----------|
E|8-8-8-8-8-8-----------------------------------------------------|

G|--------------------------------|
C|--------------------------------|
A|8-8-8-5---------3-3-3-3-3-3-3-3-|
E|--------3-3-3-3-----------------|

Chorus 2:

G|----------------------------------------|
C|----------------------------------------|
A|----------------3-3-3-3---------5-5-5-5-|
E|1-1-1-1-3-3-3-3---------1-1-1-1---------|

G|----------------------------------------|
C|----------------------------------------|
A|----------------------------------------|
E|3-3-3-3-4-4-4-4-5-5-5-5-1-1-1-1-3-3-3-3-|

Solo:

G|-------------------------------------------------------------------|
C|4-0-0-12-0-0-10-0-0-8-0-0-7-0-10-0-8-0-0-7-0-0-5-0-0-8-0-0-7-0-5-0-|
A|-------------------------------------------------------------------|
E|-------------------------------------------------------------------| x3

G|-------------------------------------------------------------------|
C|4-0-0-12-0-0-10-0-0-8-0-0-7-0-10-0-8-0-0-7-0-0-5-5-5-5-5~---\------|
A|-------------------------------------------------------------------|
E|-------------------------------------------------------------------|

G|--------------------------------------------------------|
C|--------------------------------------------------------|
A|33333--33333--33333--55557--88888--88888--88888--88887--|
E|--------------------------------------------------------|

G|--------------------------------------------------------|
D|--------------77777--77775-------------8--99999--99997--|
A|55555--55558----------------77777--7777-----------------|
E|--------------------------------------------------------|

G|--------------------------------------------------------|
C|--------------------------------------------------------|
A|88888--88885----------------33-33--33-33--33-33--33-33--|
E|--------------33333--33333------------------------------|

Last chorus and outro:

G|----------------------------------------------------------------------|
C|----------------------------------------------------------------------|
A|--------------3(x8)---------5(x8)-------------------------------------|
E|1(x8)--3(x8)---------1(x8)---------3(x8)--4(x8)--5(x8)--1(x8)--3(x8)--|

G|-------|
C|-------|
A|33-33--|
E|-------| x8

=============================================================================
07. Assassin
=============================================================================

Note: This is Grand Omega Bosses Edit version. According to Musewiki Chris
used custom bass for this song - American Deluxe bass with four bass strings
and one guitar string. 

Intro:

G|15-14-14-14-14-14-15-14-14-14-14-14-15-14-14-14-|  
D|------------------------------------------------|  
A|------------------------------------------------| 
D|------------------------------------------------| x2
                                                     
G|15-12-12-12-12-12-15-12-12-12-12-12-15-12-12-12-|    
D|------------------------------------------------|   
A|------------------------------------------------|   
D|------------------------------------------------| x2

G|15-14-14-14-14-14-15-14-14-14-14-14-15-14-14-14-|  
D|------------------------------------------------|  
A|------------------------------------------------| 
D|------------------------------------------------| x2
                                                     
G|15-12-12-12-12-12-15-12-12-12-12-12-15-12-12-12-|    
D|------------------------------------------------|   
A|------------------------------------------------|   
D|------------------------------------------------|

G|15-12-12-12-12-12-15-12-12-12-12-12-------------|    
D|------------------------------------------------|   
A|------------------------------------------------|   
D|------------------------------------------------|

[0:15] Riff 1:

G|-----14---15----14----15-14-|     |
D|----------------------------|     |
A|1212----12----12----12------|     |
D|----------------------------| x2  |
                                    |
                                    | x2  
G|-----12---12----12----12-12-|     |
D|----------------------------|     |
A|1010----10----10----10------|     |
D|----------------------------| x2  |

[0:30] Riff 2: (not sure about this but it sounds good to me)

G|---------------|---------------|---------------|----------------|
D|---------------|---------------|---------------|----------------|
A|---------------|---------------|---------------|----------------|
D|0(x16)---------|0(x16)---------|0(x16)---------|0(x10)----888888| x2

Verse:

G|----------------|----------------|--------|----------------|
D|----------------|----------------|--------|----------------|
A|5555--5555--5-5-|5555--5555--5-5-|555-555-|3333--3333--3-3-|
D|----------------|----------------|--------|----------------|

G|----------------|--------------------------|--------------------------|
D|----------------|--------------------------|--------------------------|
A|3333--3333--3-3/|10101010--10101010--10-10-|10101010--10101010--10-10-|
D|----------------|--------------------------|--------------------------|

G|---------------|----------------|----------------|
D|---------------|----------------|----------------|
A|101010-101010\-|5555--5555--5-5-|5555--5555--5-3-|
D|---------------|----------------|----------------|


G|----------------|----------------|--------|----------------|
D|----------------|----------------|--------|----------------|
A|5555--5555--5-5-|5555--5555--5-5-|555-555-|3333--3333--3-3-|
D|----------------|----------------|--------|----------------|

G|----------------|--------------------------|--------------------------|
D|----------------|--------------------------|--------------------------|
A|3333--3333--3-3/|10101010--10101010--10-10-|10101010--10101010--10-10-|
D|----------------|--------------------------|--------------------------|

G|---------------|----------------|----------------|
D|---------------|----------------|----------------|
A|101010-10\-----|5555--5555--5-5-|5555--5555--5\--|
D|---------------|----------------|----------------|

Chorus: (play twice)

G|----------------|----------------|----------------|----------------|
D|----------------|----------------|----------------|----------------|
A|----------------|----------------|----------------|3333--3333--3-3-|
D|3333--3333--3-3-|3333--3333--3-3-|3333--3333--3-3-|----------------|

G|----------------|----------------|----------------|----------------|
D|----------------|----------------|----------------|----------------|
A|----------------|----------------|----------------|5555--5555--5-5-|
D|5555--5555--5-5-|5555--5555--5-5-|5555--5555--5-5-|----------------|

Play riff 1 twice but second time do not play last bar

Play Riff 2 twice

Interlude: (if You don't want to play GOB Edit then skip this part)
br= bend & release
                             full                 full
G|-------------|    |---------------|    |---------------|
D|-------------|    |---------------|    |---------------|
A|-------------|    |------7-7br-5~-|    |------7-7br-4~-|
D|0-000-3/8-7~-| x4 |7-777----------| x3 |7-777----------|
                   
G|-------------|-------------|--------------|---------------|
D|-------------|-------------|--------------|---------------|
A|-------------|-------------|--------------|---------------|
D|0-000-3/8-7~-|0-000-3/9-8~-|0-000-3/10-9~-|0-000-3/12-13~-|

          full         
G|---------------|   
D|---------------|    
A|------7-7br-5~-|    
D|7-777----------| x4

G|----------------|    |----------------|    
D|----------------|    |----------------|    
A|----------------|    |----------------|
D|7-777-7-7-777-7-| x2 |8-888-8-8-888-8-| x2 

G|----------------|    |----------------|    
D|----------------|    |----------------|    
A|----------------|    |----------------|
D|7-777-7-7-777-7-| x2 |8-888-8-8-888-8-| x2 

G|----------------|    |----------------|----------------|--------|
D|----------------|    |----------------|----------------|--------|
A|----------------|    |----------------|----------------|--------|
D|5-555-5-5-555-5-| x2 |7-777-7-7-777-7-|7------7--7--7--|0-------|

Wait a little bit and play Riff 2 once:

Second verse same as first, play it once:

Play Chorus twice:

[3:10] Bar between chorus and Riff 1.

G|-----14----15----14----15-14-| 
D|-----------------------------|     
A|1212----12----12----12-------|     
D|-----------------------------| 

Play Riff 1 twice and end song with one short 0 on low D string.

=============================================================================
08. Exo-Politics
=============================================================================

Verse (starts on 0:35):

G|--------------|--------------|         There are no
D|------------2-|3--3--2-3-2---|    hammer-ons and pull-ofs
A|5--5--5-3-5---|------------3-|      like in other tabs
E|--------------|--------------| x2

G|--------------|--------------|--------------|--------------|
D|--------------|--------------|--------------|--------------|
A|1--1--1-0-1-3-|--------------|------------3-|5--5--3-5-3-2-|
E|--------------|1--1--1-0-1-3-|5--5--5-3-5---|--------------|

G|--------------|--------------|--------------|------------------|
D|--------------|--------------|--------------|------------------|
A|1--1--1-0-1-3-|--------------|--------------|--------------3-5\|
E|--------------|1--1--1-0-1-3-|5--5--5-3-5-6-|5--5--6-5-3-5-----|

Pre Chorus:

G|7-------7----|7-------7----|5-------5----|5-------5----|
D|-------------|-------------|-------------|-------------|
A|--5--5-----5-|--5--5-----5-|--3--3-----3-|--3--3-----3-|
E|-------------|-------------|-------------|-------------|

G|-------------|3-------3----|--------------|---------------|
D|3-------3----|-------------|------------3-|---------------|
A|-------------|--1--1-----1-|5--5--5-3-5---|5--5-3-------3-|
E|--1--1-----1-|-------------|--------------|-------6-5-6---|

G|7-------7----|7-------7----|5-------5----|5-------5----|
D|-------------|-------------|-------------|-------------|
A|--5--5-----5-|--5--5-----5-|--3--3-----3-|--3--3-----3-|
E|-------------|-------------|-------------|-------------|

G|-------------|3-------3----|--------------|---------------|
D|3-------3----|-------------|------------3-|---------------|
A|-------------|--1--1-----1-|5--5--5-3-5---|5--5-3-5-3-5-3-|
E|--1--1-----1-|-------------|--------------|---------------|

Chorus:

G|----------------|----------------|----------------|----------------|
D|----------------|----------------|----------------|----------------|
A|1-1-1-1-1-0-1-3-|----------------|--------------3-|5-5-5-5-3-5-3-2-|
E|----------------|1-1-1-1-1-0-1-3-|5-5-5-5-5-3-5---|----------------|

G|----------------|----------------|----------------|----------------|
D|----------------|----------------|----------------|----------------|
A|1-1-1-1-1-0-1-3-|----------------|----------------|----------------|
E|----------------|1-1-1-1-1-0-1-3-|5-5-5-5-5-3-5-6-|5-3-5-6-5-3-5-3-|


Guitar solo: (play verse part two times)

Pre Chorus is the same - play it once.

Chorus (little differences - last 2 bars):

G|----------------|----------------|----------------|----------------|
D|----------------|----------------|----------------|----------------|
A|1-1-1-1-1-0-1-3-|----------------|--------------3-|5-5-5-5-3-5-3-2-|
E|----------------|1-1-1-1-1-0-1-3-|5-5-5-5-5-3-5---|----------------|

G|----------------|----------------|----------------|----------------|
D|----------------|----------------|----------------|----------------|
A|1-1-1-1-1-0-1-3-|----------------|----------------|----------------|
E|----------------|1-1-1-1-1-0-1-3-|5-5-5-5-5-3-5-6-|5-3-5-6-5-3-5-3-|

G|----------------|----------------|----------------|----------------|
D|----------------|----------------|----------------|----------------|
A|1-1-1-1-1-0-1-3-|----------------|--------------3-|5-5-5-5-3-5-3-2-|
E|----------------|1-1-1-1-1-0-1-3-|5-5-5-5-5-3-5---|----------------|

G|----------------|----------------|----------------|----------------------|
D|----------------|----------------|----------------|----------------------|
A|1-1-1-1-1-0-1-3-|----------------|----------------|--12-12-12-12-12\-----|
E|----------------|1-1-1-1-1-0-1-3-|5-5-5-5-5-5-5-5-|5/--------------------|

Ending:

G|--------------|--------------|--------------|--------------|-------|
D|------------2-|3--3--2-3-2---|------------2-|3--3--2-3-2---|-------|
A|5--5--5-3-5---|------------3-|5--5--5-3-5---|------------3-|5\-----|
E|--------------|--------------|--------------|--------------|-------|

=============================================================================
09. City Of Delusion
=============================================================================

Exact copy of Pedro Zappa's tab. Here's all You need to know about this song.

Verse (starts on 0:41):

G|----------------|----------------|----------------|----------------|
D|----3---2--5-2--|----3---2--5-2--|----3---2--5-2--|----3---2--5-2--|
A|--5---4---------|--5---4---------|--5---4---------|--5---4---------|
E|----------------|----------------|----------------|----------------|

G|--------0--3-0--|----2-0-3--5-3--|----2---0--3-0--|----------------|
D|----3-2---------|--3-------------|--3---2---------|----3---2--5-2--|
A|--5-------------|----------------|----------------|--5---4---------|
E|----------------|----------------|----------------|----------------|

G|----------------|----------------|----------------|----------------|
D|----2---3--5-3--|----2---3--5-3--|----2---2--3-2--|----------------|
A|--0---1---------|--0---1---------|--0-------------|----5-----------|
E|----------------|----------------|------3---------|--1---0--3-6-5--|


Pre-Chorus:

G|----------------|----------------|----------------|----------------|
D|----3---2--5-2--|----3---2--5-2--|----3---2--5-2--|----------------|
A|--5---4---------|--5---4---------|--5---4---------|--5-5-5---------|
E|----------------|----------------|----------------|----------------|

Chorus:

G|-----------|-----------|-----------|-----------|-----------|-----------|
D|--3-3-3----|-----------|-----------|-----------|--5-5-5----|--3-3-3----|
A|-----------|--4-4-4----|--5-5-5----|--0-0-0----|-----------|-----------|
E|-----------|-----------|-----------|-----------|-----------|-----------|

G|-----------|-----------|-----------|
D|--2-2-2----|-----------|-----------|
A|-----------|--5-5-5----|--0-0-0----|
E|-----------|-----------|-----------|
 
G|---------------|---------------|---------------|
D|--5-5-5---5-5--|--3-3-3---3-3--|---------------|
A|---------------|---------------|--4-4-4---4-4--|
E|---------------|---------------|---------------|

G|---------------|---------------|---------------|
D|---------------|---------------|--5-5-5---5-5--|
A|--5-5-5---5-5--|---------------|---------------|
E|---------------|--5-5-5---5-5--|---------------|

G|---------------|---------------|---------------|
D|--3-3-3---3-3--|--2-2-2---2-2--|--0-0-0---0-0--|
A|---------------|---------------|---------------|
E|---------------|---------------|---------------|

End of Chorus:

G|----------------|----------------|----------------|----------------|
D|----2---3--5-3--|----2---3--5-3--|----2---2--3-2--|----------------|
A|--0---1---------|--0---1---------|--0-------------|----5-----------|
E|----------------|----------------|------3---------|--1---0--3-6-5--|

After this play first row of verse and then play whole verse. All parts
are same here so play them again.

=============================================================================
10. Hoodoo
=============================================================================

Exact copy of LaurentMontreal tab.

Bass starts on [1:14]:

G|--------------------------------------------------------------|
D|-3---3---1---1---0---0---1---1--------------------------------|
A|--------------------------------------------------------------|
E|------------------------------------3---3---4---4---3------3--|

Just for fun.
If You want You can play this part (or octave higher) alongside piano.

G|---------------------------|
D|10-----8-------8-----------|
A|----10----8-10---10--------|
E|--------------------11-8~--|


G|--------------------------------------------------------|
D|--------------------------------------------------------|
A|-3-3----3-3----3-3----3-3----3-3----3-3----3-3----3-3---|
E|--------------------------------------------------------|

G|--------------------------------------------------------|
D|--------------------------------------------------------|
A|-2-2----1-1---------------------------------------------|
E|---------------5-5----5-5----4-4----3-3----2-2----2-2---|

G|------------------------------------------------------------------|
D|------------------------------------------------------------------|
A|-5-5----3-3---------------------------------------6-6----5-5----3-|
E|---------------6-6----5-5----6-6-----5-5----1-1-------------------|

=============================================================================
11. Knights of Cydonia
=============================================================================

Basically this is KoC tab ver1. tabbed by Brady Clarke (DiabeticBoy on
MuseLive forums, TheRealSlimBrady on main muse) bradyclarke@iinet.net.au 

I corrected some mistakes (at least I thought there were some).

G|--------|--------|     |--------|
D|--------|--------|     |--------|
A|--------|--------|     |--------|
E|0-2-3~--|5-5-7~--| x4  |7-------|

Note: 
Every note below means that You need to play that with rhythm
like below. Example (if there's 4 on E):

G|----------------|
D|----------------|
A|----------------|
E|4-444-444-444-44|

I hope You've got it. Here we go:

G|----------------|
D|----------------|
A|----------------|
E|0---0---0---0---|

G|----------------|-----------------|----------------|----------------|
D|----------------|-----------------|----------------|----------------|
A|--------3-------|2---3---6--------|3-----------6---|--------6-------|
E|0---3-------3---|-------------3---|----3---4-------|3---4-------3---|

G|----------------|
D|----------------|
A|3---3---3---3---|
E|----------------|

G|----------------|-----------------|----------------|----------------|
D|----------------|-----------------|----------------|----------------|
A|3---6-------6---|--------2---6----|----6---7-------|6---7-------6---|
E|--------4-------|3---4------------|4-----------7---|--------7-------|

G|----------------|
D|----------------|
A|----------------|
E|4---4---4---4---|

G|----------------|----------------|----------------|----------------|
D|----------------|----------------|----------------|----------------|
A|--------7-------|6---7-----------|7-------3-------|2---3-------2---|
E|4---7-------7---|--------3---7---|----7-------3---|--------3-------|

G|----------------|
D|----------------|
A|----------------|
E|0---0---0---0---|

G|--------|--------|     |--------|
D|--------|--------|     |--------|
A|--------|--------|     |--------|
E|0-2-3~--|5-5-7~--| x4  |0~------|


No bass till [3:46}]

G|9(x16)------------------------------------------------------|
D|--------9(x16)--7(x16)--------------------------------------|
A|------------------------7(x32)------------------------------|
E|--------------------------------7(x32)--5(x16)--0(x14)-/12\-|

Last Chorus and Outro: (Add some hammer-on's and pull-off's if You want)

G|--------------|--------------|--------------|--------------| |
D|--------------|-----------5--|--------------|--------------| |
A|5777-7-5777-7-|577777-577--75|5------5------|5------5---577| |
E|--------------|--------------|-777-7--777-7-|-77777--77----| |
                                                               | x5
G|--------------|--------------|--------------|--------------| |
D|--------------|--------------|--------------|--------------| |
A|7000-0-7000-0-|700000-700----|--------------|-----------577| |
E|--------------|-----------765|3000-0-3000-0-|300000-300----| |

G|--------------|--------------|--------------|--------------| 
D|--------------|-----------5--|--------------|--------------| 
A|5777-7-5777-7-|577777-577--75|5------5------|5------5---577| 
E|--------------|--------------|-777-7--777-7-|-77777--77----| 
                                                             
G|--------------|--------------|--------------|--------------| 
D|--------------|--------------|--------------|--------------| 
A|7000-0-7000-0-|700000-700----|--------------|--------------| 
E|--------------|-----------765|3000-0-3000-0-|300000-300-567| 
          
Ending: 

G|--------------|--------------|--------------|--------------| 
D|--------------|--------------|--------------|--------------| 
A|--------------|--------------|--------------|-------577-577|
E|3000-0-3000-0-|3000-0-300-567|3000-0-3000-0-|3000-0--------| x2

G|--------------|
D|--------------|
A|--------------|     
E|0~------------|

/  slide up
\  slide down
h  hammer-on
p  pull-off
~  let ring
br  bend & release
comments
print report bad tab
I want to post or [tab]
guest
You may want to rate the tab now too:
select rating
Please do not post tabs as comments. Select "correction" instead!