Oops, an error
Loading. Please wait.

Citizen Erased Tab

by Muse
ver2
ver2
More versions @911Tabs.com
13,129 views 3 this week
5 commentsread comments
1 2 3 4 5
worth learning
x 4
add to favorites launch autoscroll
font size
0
reset
Autoscroll
+/-
esc
set tempo
stop
WARNING: You are trying to view
                                    content from Ultimate-Guitar.com
                                    in an unauthorized application,
                                    which is prohibited.

                                    Please use an official Ultimate
                                    Guitar Tabs application for iPhone,
                                    iPad or Android to access legitimate
                                    chords, guitar, bass, and drum tabs
                                    from Ultimate-Guitar.com database.

                                    Type "ultimate guitar tabs" in Apple
                                    App Store's or Android Market's
                                    search to find the application.
MUSE
CITIZEN ERASED


Standard Tuning

Note:
This tab is a 7 string guitar
arranged for a 6 string guitar
Drop The low E to an A, too. 

Intro:

|---------------------------|
|---------------------------|
|---------------------------|
|---------------------------|
|-------7---7-7---7-7---77--|
|--0-0----0-----0-----0-----| (x2)
        *   * *   * *   **

|-------------------------------|
|-------------------------------|
|-------------------------------|
|-------------------------------|
|-------------------------------|
|--0-0----4--0-44--0-4-4--0-44--| (x2)
          *    **    * *    **

Last Time:

|-----------------|
|-----------------|
|-----------------|
|-----------------|
|-----------------|
|--0-0----4--0-4--| <let Last Harmonic Ring>
          *    *

Verse:

|----0----3--------------|
|----1----0----1----0----|
|----2----0----2----1----|
|----2----0----3----2----|
|----0----2----3----2----|
|------------------------|

Chorus:

|----1----0----0----0----|----1----0----0----|
|----1----1----0----1----|----1----1----0----|
|----2----0----1----2----|----2----0----1----|
|----3----2----2----2----|----3----2----2----|
|----3----3----2----0----|----3----3----2----|
|------------------------|-------------------|


Quiet Section:

|-----|
|-----|
|-----|
|--7--|
|-----|
|-----| (Let Ring)

|------------5--------8-----7-----6--------5-----|
|------------------5---5------5-----5--------5---|
|---------5----5--------5------5------5--------5-|
|--5-/-7----------------------------------5------|
|------------------------------------------------|-
|------------------------------------------------|

|--------------------------------------------------------------------------8-----8p7--|
|--9-----8----7---7h8----8------7------6------7-----8----------9--------9---9---------|
|---5-----5----5------------5------5------5------5-----5-----------9---9-------9------|
|------5----5----5------3-----3-------3------3------3-----3---9------9----------------|
|----------------------------------------------------------7--------------------------|
|-------------------------------------------------------------------------------------|

|----------5-------6-----7-----8------7---------|
|------------5------5-----5------5-----5--------|
|--------------5------5-----5------5-----5---7--|
|--5-/-7----------------------------------------|
|-----------------------------------------------|
|-----------------------------------------------|

|--7-----8----9-----10-----9---------8-------9-------10-------11-------11---------12--|
|----8----8----8-------8-----8---------10------10-------10-------10------10------9----|
|-----7----7-----7------7-----7--10-------10------10-------10-------10------10--9-----|
|-------------------------------------------------------------------------------------|
|-------------------------------------------------------------------------------------|
|-------------------------------------------------------------------------------------|

Quiet Chorus:

|----------1---------------0---------------0-----------0-------0---|
|------1-----1---1-----1-----1---1-----0-----0---0---1---1---1---1-|
|----2---2-----2-----0---0-----0-----1---1-----1---2-------0-------|
|--3---------------2---------------2-------------------------------|
|------------------------------------------------------------------|
|------------------------------------------------------------------|

|--------1------------------0----------------0---------------0--------|
|------1-----1---1------1-----1---1------0-----0---0-----0-----0---0--|
|----2----2-----2-----0---0-----0------1---1-----1-----1---1-----1----|
|--3---------------2----------------2---------------2-----------------|
|---------------------------------------------------------------------|
|---------------------------------------------------------------------|

Last Time:

|----------1---------------0----------------------------------------|
|------1-----1---1-----1-----1---1------------------0-0-0-0-0-0-0-0-|
|----2---2-----2-----0---0-----0----1-1-1-1-1-1-1-1-1-1-1-1-1-1-1-1-|
|--3---------------2----------------2-2-2-2-2-2-2-2-2-2-2-2-2-2-2-2-|
|-------------------------------------------------------------------|
|-------------------------------------------------------------------|

Solo:

|----------------------------------------19-----------12b13--13b15--16b15-15--15b16--|
|------------15b17b15--13--12b13b12--/19----12b13b12---------------------------------|
|--14-16-17--------------------------------------------------------------------------|
|------------------------------------------------------------------------------------|
|------------------------------------------------------------------------------------|
|------------------------------------------------------------------------------------|

|------20------------------|
|--/19-----15----12b13b12--|
|--------------------------|
|--------------------------|
|--------------------------|
|--------------------------|

Ending:

|-----------------------------0----------------------------------0----------|
|---------------------------0-----------------------------------0-----------|
|--2--2/4--0--4b5-4b5-4-2-1------2---2---2/4-0--4b5-4b5-4--2--1-----1h2-----|
|----------------------------------2---3-------------------------------1h2--|
|---------------------------------------------------------------------------|
|---------------------------------------------------------------------------|

|----0---0---0---0---0---0---0---0---0---0---0---0---0---0--|
|---1-1-1-1-1-1-1-1-1-1-1-1-3-3-3-3-3-3-3-3-1-1-1-1-1-0-----|
|--2---2---2---2---0---0---0---0---2---2---2---2---1--------|
|-----------------------------------------------------------|
|-----------------------------------------------------------|
|-----------------------------------------------------------|

|-0---0---0---0---0---0---0---0---0---0---0---0---0------0--|
|--1-1-1-1-1-1-1-1-3-3-3-3-3-3-3-3-3-1-1-1-1-1-1-1-1----1---|
|---2---2---2---2---0---0---0---0---0---0---0---0------0----|
|-----------------------------------------------------2-----|
|----------------------------------------------------3------|
|-----------------------------------------------------------|

Outro Chords:

|----0----0----0----1----1----0----0----0----1----1----0----|
|----1----1----1----1----1----1----0----1----1----1----1----|
|----0----2----0----2----1----0----1----2----2----1----0----|
|----2----2----2----3----3----2----2----2----3----3----2----|
|----3----0----3----3----3----3----2----0----3----3----3----|
|-----------------------------------------------------------|
comments
print report bad tab
5 comments total. Showing first comments.
0 reply
Bubbles_666 wrote on January 19 2002, 12:00 am

nope wrong, he re gauges the string

0 reply
Derkwyat00 wrote on March 31 2002, 12:00 am

this is very wrong

0 reply
mit_mot wrote on April 25 2002, 12:00 am

where are the harmonics?

I want to post or [tab]
guest
You may want to rate the tab now too:
select rating
Please do not post tabs as comments. Select "correction" instead!