Oops, an error
Loading. Please wait.

Citizen Erased Tab

by Muse
ver7
ver7
More versions @911Tabs.com
2,880 views 18 this week
1 commentread comment
1 2 3 4 5
excellent!
x 1
Autoscroll
+/-
esc
set tempo
stop
Contributor
Hey! There's an official Ultimate Guitar app which is ideal
for learning songs when you're away from computer. Get the app
WARNING: You are trying to view
                                    content from Ultimate-Guitar.com
                                    in an unauthorized application,
                                    which is prohibited.

                                    Please use an official Ultimate
                                    Guitar Tabs application for iPhone,
                                    iPad or Android to access legitimate
                                    chords, guitar, bass, and drum tabs
                                    from Ultimate-Guitar.com database.

                                    Type "ultimate guitar tabs" in Apple
                                    App Store's or Android Market's
                                    search to find the application.
-----------------------------------------------------------------------------
			     CITIZEN ERASED - Muse
-----------------------------------------------------------------------------
Tabbed by: RDX1138
Email:RDX20-01@hotmail.com


ARTIST - Muse
TITLE - Citizen Erased
ALBUM - Origin Of Symmetry
Tuning: 7-String, AADDGBe

The tuning of the strings goes Low A high A unison D's then standard GBe


This is just a reworking of tom_nik's tab (done with his permission)but for a seven 
guitar and with a few minor changes.


INTRO w/distortion
E|-------------------------------|-------------------------------|
B|-------------------------------|-------------------------------|
G|-------------------------------|-------------------------------|
D|-------------------------------|-------------------------------|
D|-------------------------------|-------------------------------|
A|------2+--0-2+-2+-0-2+-2+-0-2+-|------2+--0-2+-2+-0-2+-2+-0-2+-|
A|--0-0--------------------------|--0-0--------------------------|
+ this harmonic is actually a little

E|-------------------------------|-------------------------------|
B|-------------------------------|-------------------------------|
G|-------------------------------|-------------------------------|
D|-------------------------------|-------------------------------|
D|-------------------------------|-------------------------------|
A|------3*--0-3*-3*-0-3*-3*-0-3*-|------3*--0-3*-3*-0-3*-3*-0-3*-|
A|--0-0--------------------------|--0-0--------------------------|


MAIN RIFF w/distortion
e|-----------------------------------|-----------------------------------|
B|-----------------------------------|-----------------------------------|
G|-----------------------------------|-----------------------------------|
D|-----------------------------------|-----------------------------------|
D|-----------------------------------|-----------------------------------|
A|--0-0--12--0-12-12--0-12-12-0--12--|--0-0--10--0-10-10--0-10-10-0--10--|
A|--0-0--12--0-12-12--0-12-12-0--12--|--0-0--10--0-10-10--0-10-10-0--10--|

e|-----------------------------------|-----------------------------------|
B|-----------------------------------|-----------------------------------|
G|-----------------------------------|-----------------------------------|
D|-----------------------------------|-----------------------------------|
D|-----------------------------------|-----------------------------------|
A|--0-0---8--0--8--8--0--8--8-0---8--|--0-0---7--0--7--7--0--7--7-0---7--|
A|--0-0---8--0--8--8--0--8--8-0---8--|--0-0---7--0--7--7--0--7--7-0---7--|


VERSE w/distortion
e|----------------------------------------------|
B|----------------------------------------------|
G|----------------------------------------------|
D|----------------------------------------------|
D|----------------------------------------------|
A|--0-12-12-0--12-12-0-12-0--12-12-0-12-0-12-12-|
A|----------------------------------------------|

e|----------------------------------------------|
B|----------------------------------------------|
G|----------------------------------------------|
D|----------------------------------------------|
D|----------------------------------------------|
A|--0-14-14-0--14-14-0-14-0--14-14-0-14-0-14-14-|
A|----------------------------------------------|

e|----------------------------------------------|
B|----------------------------------------------|
G|----------------------------------------------|
D|----------------------------------------------|
D|----------------------------------------------|
A|--0-15-15-0--15-15-0-15-0--15-15-0-15-0-15-15-|
A|----------------------------------------------|

e|----------------------------------------------|
B|----------------------------------------------|
G|----------------------------------------------|
D|----------------------------------------------|
D|----------------------------------------------|
A|--0-17-17-0--17-17-0-17-0--17-17-0-17-0-17-17-|
A|----------------------------------------------|

e|----------------------------------------------|
B|----------------------------------------------|
G|----------------------------------------------|
D|----------------------------------------------|
D|----------------------------------------------|
A|--0-15-15-0--15-15-0-15-0--15-15-0-15-0-15-15-|
A|----------------------------------------------|

e|-------------------------------------------------|
B|-------------------------------------------------|
G|-------------------------------------------------|
D|-------------------------------------------------|
D|-------------------------------------------------|
A|--0-14-14-0--14-14-0-14-0--14-14-0-14-0-14-14----|
A|-------------------------------------------------|

e|----------------------------------------------|
B|----------------------------------------------|
G|----------------------------------------------|
D|----------------------------------------------|
D|----------------------------------------------|
A|--0-17-17-0--17-17-0-17-0--17-17-0-17-0-17-17-|
A|----------------------------------------------|

e|----------------------------|----------------------------|
B|----------------------------|----------------------------|
G|------2-2-2-2-2-2-2-2-2-2-2-|------4-4-4-4-4-4-4-4-4-4-4-|
D|------2-2-2-2-2-2-2-2-2-2-2-|------4-4-4-4-4-4-4-4-4-4-4-|
D|------2-2-2-2-2-2-2-2-2-2-2-|------4-4-4-4-4-4-4-4-4-4-4-|
A|------0-0-0-0-0-0-0-0-0-0-0-|------2-2-2-2-2-2-2-2-2-2-2-|
A|--0-0-----------------------|--0-0-----------------------|

e|----------------------------|----------------------------|
B|----------------------------|----------------------------|
G|------5-5-5-5-5-5-5-5-5-5-5-|------7-7-7-7-7-7-7-7-7-7-7-|
D|------5-5-5-5-5-5-5-5-5-5-5-|------7-7-7-7-7-7-7-7-7-7-7-|
D|------5-5-5-5-5-5-5-5-5-5-5-|------7-7-7-7-7-7-7-7-7-7-7-|
A|------3-3-3-3-3-3-3-3-3-3-3-|------5-5-5-5-5-5-5-5-5-5-5-|
A|--0-0-----------------------|--0-0-----------------------|

e|----------------------------|----------------------------|
B|----------------------------|----------------------------|
G|------5-5-5-5-5-5-5-5-5-5-5-|------4-4-4-4-4-4-4-4-4-4-4-|
D|------5-5-5-5-5-5-5-5-5-5-5-|------4-4-4-4-4-4-4-4-4-4-4-|
D|------5-5-5-5-5-5-5-5-5-5-5-|------4-4-4-4-4-4-4-4-4-4-4-|
A|------3-3-3-3-3-3-3-3-3-3-3-|------2-2-2-2-2-2-2-2-2-2-2-|
A|--0-0-----------------------|--0-0-----------------------|


e|----------------------------|----------------------------|
B|----------------------------|----------------------------|
G|------2-2-2-2-2-2-2-2-2-2-2-|------4-4-4-4-4-4-4-4-4-4-4-|
D|------2-2-2-2-2-2-2-2-2-2-2-|------4-4-4-4-4-4-4-4-4-4-4-|
D|------2-2-2-2-2-2-2-2-2-2-2-|------4-4-4-4-4-4-4-4-4-4-4-|
A|------0-0-0-0-0-0-0-0-0-0-0-|------2-2-2-2-2-2-2-2-2-2-2-|
A|--0-0-----------------------|--0-0-----------------------|

CHORUS w/distortion
e|-------------------------------------------------|
B|-------------------------------------------------|
G|-10-10-10-10-10-10-10-10--5--5--5--5--5--5--5--5-|
D|-10-10-10-10-10-10-10-10--5--5--5--5--5--5--5--5-|
D|-10-10-10-10-10-10-10-10--5--5--5--5--5--5--5--5-|
A|-8--8--8--8--8--8--8--8---3--3--3--3--3--3--3--3-|
A|-8--8--8--8--8--8--8--8---3--3--3--3--3--3--3--3-|

e|-------------------------------------------------|
B|-------------------------------------------------|
G|-9--9--9--9--9--9--9--9--------------12-12-12-12-|
D|-9--9--9--9--9--9--9--9--7--7--7--7--12-12-12-12-|
D|-9--9--9--9--9--9--9--9--7--7--7--7--12-12-12-12-|
A|-7--7--7--7--7--7--7--7--0--0--0--0--10-10-10-10-|
A|-7--7--7--7--7--7--7--7--0--0--0--0--10-10-10-10-|

e|-------------------------------------------------|
B|-------------------------------------------------|
G|-10-10-10-10-10-10-10-10--5--5--5--5--5--5--5--5-|
D|-10-10-10-10-10-10-10-10--5--5--5--5--5--5--5--5-|
D|-10-10-10-10-10-10-10-10--5--5--5--5--5--5--5--5-|
A|-8--8--8--8--8--8--8--8---3--3--3--3--3--3--3--3-|
A|-8--8--8--8--8--8--8--8---3--3--3--3--3--3--3--3-|

e|-------------------------------------------------|
B|-------------------------------------------------|
G|-9--9--9--9--9--9--9--9--9--9--9--9--9--9--9--9--|
D|-9--9--9--9--9--9--9--9--9--9--9--9--9--9--9--9--|
D|-9--9--9--9--9--9--9--9--9--9--9--9--9--9--9--9--|
A|-7--7--7--7--7--7--7--7--7--7--7--7--7--7--7--7--|
A|-7--7--7--7--7--7--7--7--7--7--7--7--7--7--7--7--|
	(play all that twice for each chorus)

INTERLUDE 1 (clean)
e|-------------|-------------|-------------|-------------|
B|-------------|-------------|-------------|-------------|
G|-------------|-------------|-------------|-------------|
D|-------------|-------------|-------------|-------------|
D|-------------|-------------|-------------|-------------|
A|--7----------|-------------|-------------|--/9---------|
A|-------------|-------------|-------------|-------------|
    hold~~~~~~~~~~~~~~~~~~~~~~~~~~

E|-----5-----8-----7----6-----5---|-----5-----4-----3-----4-----5---|
B|-------5-----5----5-----5-----5-|---3---3-----3-----3-----3-----3-|
G|-2/5-----5-----5----5-----5-----|-4-------4-----4-----4-----4-----|
D|--------------------------------|---------------------------------|
D|--------------------------------|---------------------------------|
A|--------------------------------|---------------------------------|
A|--------------------------------|---------------------------------|

E|-----3-----2-----1-----2-----3--|-----3-----3-----5-----5p3-------|
B|---1---1-----1-----1-----1-----1|-------3-----3-----3-------3---3-|
G|-2-------2-----2-----2-----2----|-2/4-----4-----4-----4-------4---|
D|--------------------------------|---------------------------------|
D|--------------------------------|---------------------------------|
A|--------------------------------|---------------------------------|
A|--------------------------------|---------------------------------|

E|-----5-----6-----7----8-----7---|-----7-----8-----9----10-----9---|
B|-------5-----5----5-----5-----5-|---8---8-----8-----8-----8-----x-|
G|-2/5-----5-----5----5-----5-----|-7-------7-----7-----7-----7-----|
D|--------------------------------|---------------------------------|
D|--------------------------------|---------------------------------|
A|--------------------------------|---------------------------------|
A|--------------------------------|---------------------------------|

E|-----8----9----10----11----12-0-|-------12~~~~~~~~----------------|
B|---10-10---10----10----10-------|-------12~~~~~~~~----------------|
G|-10-----10---10----10----10-----|----13---------------------------|
D|--------------------------------|-14------------------------------|
D|--------------------------------|---------------------------------|
A|--------------------------------|---------------------------------|
A|--------------------------------|---------------------------------|


VERSE 2 - Second Part

    F		     C		       E		Am	  C
e|----------1----------------0-------|----------0-------------0--------0----|
B|------1--------1-------1-------1---|-----0---------0------1---1---1-----1-|
G|----2---2---2----2---0---0---0---0-|---1----1----1---1--2-------0---------|
D|--3----------------2---------------|-2------------------------------------|
D|-----------------------------------|--------------------------------------|
A|-----------------------------------|--------------------------------------|
A|-----------------------------------|--------------------------------------|
      For____ one    moment_______

    F		    C		       E
e|----------1----------------0-------|---------0-----------0-------0--------|
B|------1-------1--------1-------1---|-----0-------0-----0---0---0---0------|
G|----2---2---2---2----0---0---0---0-|---1---1---1---1---------1------------|
D|--3----------------2---------------|-2---------------2--------------------|
D|-----------------------------------|--------------------------------------|
A|-----------------------------------|--------------------------------------|
A|-----------------------------------|--------------------------------------|

    F		     C		       E		Am	  C
e|----------1----------------0-------|----------0-------------0--------0----|
B|------1--------1-------1-------1---|-----0---------0------1---1---1-----1-|
G|----2---2---2----2---0---0---0---0-|---1----1----1---1--2-------0---------|
D|--3----------------2---------------|-2------------------------------------|
D|-----------------------------------|--------------------------------------|
A|-----------------------------------|--------------------------------------|
A|-----------------------------------|--------------------------------------|
    Open minded					Im Sure i used


    F		    C		      E
e|----------1---------------0-------|---------------------------------------|
B|------1-------1-------1-------1---|---------------------------------------|
G|----2---2---2---2---0---0---0---0-|-9--9-9-9-9-9-9-9-9--------------------|
D|--3---------------2---------------|-9--9-9-9-9-9-9-9-9--------------------|
D|----------------------------------|-9--9-9-9-9-9-9-9-9--------------------|
A|----------------------------------|-7--7-7-7-7-7-7-7-7--------------------|
A|----------------------------------|-7--7-7-7-7-7-7-7-7--------------------|
	to be___	so	     free_______	(get louder)

MAIN RIFF X1

SOLO - 	the start of the actual solo was just a bunch of squealy notes i
couldn't tab so ill tab the start from Hullabaloo which is just as good. the rest is 
the recording
E|------------------------------------|-------------------------------------|
B|------------------------------------|-------------------------------------|
G|---------------------------------12^|---------------------------------12^-|
D|------------------------------------|-------------------------------------|
D|------------------------------------|-------------------------------------|
A|-0-12-12-0--12-12-0--12-12-0--12----|-0-14-14-0--14-14-0--14-14-0--14-----|
A|------------------------------------|-------------------------------------|


E|------------------------------------|-------------------------------------|
B|------------------------------------|-------------------------------------|
G|--------------------------------12^-|---------------------------------12^-|
D|------------------------------------|-------------------------------------|
D|------------------------------------|-------------------------------------|
A|-0-15-15-0--15-15-0--15-15-0--15----|-0-17-17-0--17-17-0--17-17-0--17-----|
A|------------------------------------|-------------------------------------|

E|------------------------------------|-------------------------------------|
B|------------------------------------|-------------------------------------|
G|------11^-------------13^-----------|--13~~~~~-13---/14---/16-------------|
D|------------------------------------|-------------------------------------|
D|------------------------------------|-------------------------------------|
A|------------------------------------|----------11---/12---/14-------------|
A|------------------------------------|-------------------------------------|
						  tremolo picking

E|------------------------------------|-------------------------------------|
B|------------------------------------|-------------------------------------|
G|--16^^^-------------19^^^^^---------|-17---16h17p16---14-14--------21^^---|
D|------------------------------------|-------------------------------------|
D|------------------------------------|-------------------------------------|
A|------------------------------------|-------------------------------------|
A|------------------------------------|-------------------------------------|

E|------------------------------------|-------------------------------------|
B|------------------------------------|-------------------------------------|
G|-23^^^^^^---------------------------|--20p17--20-20--20^full--------------|
D|------------------------------------|-------------------------------------|
D|------------------------------------|-------------------------------------|
A|------------------------------------|-------------------------------------|
A|------------------------------------|-------------------------------------|

E|--------____--------/---etc etc-----|-------------------------------------|
B|-------/----\------/----------------|-------------------------------------|
G|---20^/------\----/-----------------|-----12^-----------------------------|
D|--------------\--/------------------|-------------------------------------|
D|---------------\/-------------------|-------------------------------------|
A|------------------------------------|-------------------------------------|
A|------------------------------------|-------------------------------------|
    this bit is all insane whammy pedal work

CHORUS

PRE END BIT W/delay and possibly phaser
E|---------------|---------------|---------------|-----1---------|
B|---------------|---------------|---------------|---1-----------|
G|--2--------2h4-|-4--------0-4^-|-^4-------2----|-2-------------|  x2
D|---------------|---------------|---------------|---------------|
D|---------------|---------------|---------------|---------------|
A|---------------|---------------|---------------|---------------|
A|---------------|---------------|---------------|---------------|
			     hold bend		   let ring

this is the really Quiet part on piano.
E|-0-------0-------0-------0-------|-0-------0-------0-------0--------|
B|---5---5---5---5---5---5---5---5-|---5---5---5---5---3---3---3---3--|
G|-----5-------5-------5-------5---|-----5-------5-------4-------4----|
D|---------------------------------|----------------------------------|
D|---------------------------------|----------------------------------|
A|---------------------------------|----------------------------------|
A|---------------------------------|----------------------------------|

E|-0-------0-------0-------0-------|-0--------------------------------|
B|---3---3---3---3---1---1---1---0-|----------------------------------|
G|-----4-------4-------2-------1---|----------------------------------|
D|---------------------------------|----------------------------------|
D|---------------------------------|----------------------------------|
A|---------------------------------|----------------------------------|
A|---------------------------------|----------------------------------|

E|-0-------0-------0-------0-------|-0-------0-------0-------0--------|
B|---5---5---5---5---5---5---5---5-|---5---5---5---5---3---3---3---3--|
G|-----5-------5-------5-------5---|-----5-------5-------4-------4----|
D|---------------------------------|----------------------------------|
D|---------------------------------|----------------------------------|
A|---------------------------------|----------------------------------|
A|---------------------------------|----------------------------------|

E|-0--------0----------------------|-0--------------------------------|
B|---1--------1--------------------|-1--------------------------------|
G|-----0--------0------------------|-0--------------------------------|
D|-------2--------2-------2--------|-2--------------------------------|
D|---------------------------------|-x--------------------------------|
A|------------------3-----3--------|-3--------------------------------|
A|---------------------------------|----------------------------------|


| /  slide up
| \  slide down
| h  hammer-on
| p  pull-off
| ~  vibrato
| *  harmonic
| x  Mute note
===============================================================================
comments
We did not receive enough feedback on this tab! Please rate:
print report bad tab
1 2 3 4 5
1 comment total.
0 reply
GeekInThePink wrote on June 21 2012, 09:58 am

Fix the clean solo. The ends of the second and fourth bars are wrong on both versions. I'll still give you five stars, though.

I want to post or [tab]
guest
You may want to rate the tab now too:
select rating
Please do not post tabs as comments. Select "correction" instead!