Oops, an error
Loading. Please wait.

Coma Tab

by Muse
ver3
ver3

Whole song

Interactive

More versions @911Tabs.com
5,635 views 6 this week
4 commentsread comments
1 2 3 4 5
excellent!
x 7
Autoscroll
+/-
esc
set tempo
stop
Contributor
Difficulty
novice
WARNING: You are trying to view
                                    content from Ultimate-Guitar.com
                                    in an unauthorized application,
                                    which is prohibited.

                                    Please use an official Ultimate
                                    Guitar Tabs application for iPhone,
                                    iPad or Android to access legitimate
                                    chords, guitar, bass, and drum tabs
                                    from Ultimate-Guitar.com database.

                                    Type "ultimate guitar tabs" in Apple
                                    App Store's or Android Market's
                                    search to find the application.
----------------------------------------------------------------------------
                                  Muse – Coma
----------------------------------------------------------------------------

-- Guitar 1

     Q    S S S E.   E   S E  S    E  E  E  S E  E  E  S E   
E||-----------------------------|---------------------------|
B||--3--------------------------|---------------------------|
G||--2----9-7-9-9b---9b--9-7--9-|---------------------------|
D||--0--------------------------|--9--9--6--9-9--9--9--9-9--|
A||-----------------------------|---------------------------|
E||-----------------------------|---------------------------|


  Q    S S S  E.    E    S  E   S  
----------------------------------|
--3----------17b---17b--17-15--17-|
--2----9-7-9----------------------|
--0-------------------------------|
----------------------------------|
----------------------------------|


   S  S   S  S   S  S   S  S   S  S   S  S   S  S   S  S   
--16~-0~-16~-0~-16~-0~-16~-0~-15~-0~-15~-0~-15~-0~-15~-0~-|
----------------------------------------------------------|
----------------------------------------------------------|
----------------------------------------------------------|
----------------------------------------------------------|
----------------------------------------------------------|


  Q    S S S E.   E   S E  S    E  E  E  S E  E  E  S E   
-----------------------------|---------------------------|
--3--------------------------|---------------------------|
--2----9-7-9-9b---9b--9-7--9-|---------------------------|
--0--------------------------|--9--9--6--9-9--9--9--9-9--|
-----------------------------|---------------------------|
-----------------------------|---------------------------|


  Q    S S S  E.    E    S  E   S  
----------------------------------|
--3----------17b---17b--17-15--17-|
--2----9-7-9----------------------|
--0-------------------------------|
----------------------------------|
----------------------------------|


   S  S   S  S   S  S   S  S   S  S   S  S   S  S   S  S   
--16~-0~-16~-0~-16~-0~-16~-0~-15~-0~-15~-0~-15~-0~-15~-0~-|
----------------------------------------------------------|
----------------------------------------------------------|
----------------------------------------------------------|
----------------------------------------------------------|
----------------------------------------------------------|


  Q    S S S E.   E   S E  S    E  E  E  S E  E  E  S E   
-----------------------------|---------------------------|
--3--------------------------|---------------------------|
--2----9-7-9-9b---9b--9-7--9-|---------------------------|
--0--------------------------|--9--9--6--9-9--9--9--9-9--|
-----------------------------|---------------------------|
-----------------------------|---------------------------|


  Q    S S S  E.    E    S  E   S  
----------------------------------|
--3----------17b---17b--17-15--17-|
--2----9-7-9----------------------|
--0-------------------------------|
----------------------------------|
----------------------------------|


   S  S   S  S   S  S   S  S   S  S   S  S   S  S   S  S   
--16~-0~-16~-0~-16~-0~-16~-0~-15~-0~-15~-0~-15~-0~-15~-0~-|
----------------------------------------------------------|
----------------------------------------------------------|
----------------------------------------------------------|
----------------------------------------------------------|
----------------------------------------------------------|


  S S S S S S S S S S S S S S S S    S S S S S S S S S S S S S S S S  
----------------------------------|----------------------------------|
------3-3-----3-3-----3-3-----3-3-|------3-3-----3-3-----2-2-----2-2-|
--2-2-----2-2-----1-1-----1-1-----|--0-0-----0-0-----0-0-----0-0-----|
----------------------------------|----------------------------------|
----------------------------------|----------------------------------|
----------------------------------|----------------------------------|


  S S S S S S S S S S S S S S S S    S S S S S S S S H          
----------------------------------|----------------------------|
------3-3-----3-3-----3-3-----3-3-|------3-3-----3---2b--------|
--2-2-----2-2-----1-1-----1-1-----|--0-0-----0-0---0-----------|
----------------------------------|----------------------------|
----------------------------------|----------------------------|
----------------------------------|----------------------------|


  S S S S S S S S S S S S S S S S    S S S S S S S S S S S S S S S S  
----------------------------------|----------------------------------|
------3-3-----3-3-----3-3-----3-3-|------3-3-----3-3-----2-2-----2-2-|
--2-2-----2-2-----1-1-----1-1-----|--0-0-----0-0-----0-0-----0-0-----|
----------------------------------|----------------------------------|
----------------------------------|----------------------------------|
----------------------------------|----------------------------------|


  S S S S S S S S S S S S S S S S    S S S S S S S S S S S S S S S S  
----------------------------------|----------------------------------|
------3-3-----3-3-----3-3-----3-3-|------3-3-----3-3-----2-2-----2-2-|
--2-2-----2-2-----1-1-----1-1-----|--0-0-----0-0-----0-0-----0-0-----|
----------------------------------|----------------------------------|
----------------------------------|----------------------------------|
----------------------------------|----------------------------------|


  S S S S S S S S S S S S S S S S    S S S S S S S S S S S S S S S S  
----------------------------------|----------------------------------|
------3-3-----3-3-----3-3-----3-3-|------3-3-----3-3-----2-2-----2-2-|
--2-2-----2-2-----1-1-----1-1-----|--0-0-----0-0-----0-0-----0-0-----|
----------------------------------|----------------------------------|
----------------------------------|----------------------------------|
----------------------------------|----------------------------------|


  S S S S S S S S S S S S S S S S    S S S S S S S S H          
----------------------------------|----------------------------|
------3-3-----3-3-----3-3-----3-3-|------3-3-----3---2b--------|
--2-2-----2-2-----1-1-----1-1-----|--0-0-----0-0---0-----------|
----------------------------------|----------------------------|
----------------------------------|----------------------------|
----------------------------------|----------------------------|


  Q    E  E  Q    E  E     Q    E  E  Q    E  E     Q    E  E  Q    E  E   
------------------------|------------------------|------------------------|
------------------------|-------------3----3--3--|------------------------|
-------------7----7--7--|--3----3--3--4----4--4--|-------------7----7--7--|
--5----5--5--7----7--7--|--4----4--4--4----4--4--|--5----5--5--7----7--7--|
--5----5--5--5----5--5--|--4----4--4--2----2--2--|--5----5--5--5----5--5--|
--3----3--3-------------|--2----2--2-------------|--3----3--3-------------|


  Q    E  E  Q    E  E     Q    E  E  Q    E  E     Q    E  E  Q    E  E   
------------------------|------------------------|------------------------|
-------------3----3--3--|------------------------|-------------3----3--3--|
--3----3--3--4----4--4--|-------------7----7--7--|--3----3--3--4----4--4--|
--4----4--4--4----4--4--|--5----5--5--7----7--7--|--4----4--4--4----4--4--|
--4----4--4--2----2--2--|--5----5--5--5----5--5--|--4----4--4--2----2--2--|
--2----2--2-------------|--3----3--3-------------|--2----2--2-------------|


  W                   W                   Q    S S S E.   E   S E  S  
-------------------|-------------------|-----------------------------|
-------------------|-------------------|--3--------------------------|
-------------------|--2----------------|--2----9-7-9-9b---9b--9-7--9-|
--5----------------|--2----------------|--0--------------------------|
--5----------------|--0----------------|-----------------------------|
--3----------------|-------------------|-----------------------------|


  E  E  E  S E  E  E  S E     Q    S S S  E.    E    S  E   S  
---------------------------|----------------------------------|
---------------------------|--3----------17b---17b--17-15--17-|
---------------------------|--2----9-7-9----------------------|
--9--9--6--9-9--9--9--9-9--|--0-------------------------------|
---------------------------|----------------------------------|
---------------------------|----------------------------------|


   S  S   S  S   S  S   S  S   S  S   S  S   S  S   S  S   
--16~-0~-16~-0~-16~-0~-16~-0~-15~-0~-15~-0~-15~-0~-15~-0~-|
----------------------------------------------------------|
----------------------------------------------------------|
----------------------------------------------------------|
----------------------------------------------------------|
----------------------------------------------------------|


  Q    S S S E.   E   S E  S    E  E  E  S E  E  E  S E   
-----------------------------|---------------------------|
--3--------------------------|---------------------------|
--2----9-7-9-9b---9b--9-7--9-|---------------------------|
--0--------------------------|--9--9--6--9-9--9--9--9-9--|
-----------------------------|---------------------------|
-----------------------------|---------------------------|


  Q    S S S  E.    E    S  E   S  
----------------------------------|
--3----------17b---17b--17-15--17-|
--2----9-7-9----------------------|
--0-------------------------------|
----------------------------------|
----------------------------------|


   S  S   S  S   S  S   S  S   S  S   S  S   S  S   S  S   
--16~-0~-16~-0~-16~-0~-16~-0~-15~-0~-15~-0~-15~-0~-15~-0~-|
----------------------------------------------------------|
----------------------------------------------------------|
----------------------------------------------------------|
----------------------------------------------------------|
----------------------------------------------------------|


  S S S S S S S S S S S S S S S S    S S S S S S S S S S S S S S S S  
----------------------------------|----------------------------------|
------3-3-----3-3-----3-3-----3-3-|------3-3-----3-3-----2-2-----2-2-|
--2-2-----2-2-----1-1-----1-1-----|--0-0-----0-0-----0-0-----0-0-----|
----------------------------------|----------------------------------|
----------------------------------|----------------------------------|
----------------------------------|----------------------------------|


  S S S S S S S S S S S S S S S S    S S S S S S S S H          
----------------------------------|----------------------------|
------3-3-----3-3-----3-3-----3-3-|------3-3-----3---2b--------|
--2-2-----2-2-----1-1-----1-1-----|--0-0-----0-0---0-----------|
----------------------------------|----------------------------|
----------------------------------|----------------------------|
----------------------------------|----------------------------|


  S S S S S S S S S S S S S S S S    S S S S S S S S S S S S S S S S  
----------------------------------|----------------------------------|
------3-3-----3-3-----3-3-----3-3-|------3-3-----3-3-----2-2-----2-2-|
--2-2-----2-2-----1-1-----1-1-----|--0-0-----0-0-----0-0-----0-0-----|
----------------------------------|----------------------------------|
----------------------------------|----------------------------------|
----------------------------------|----------------------------------|


  S S S S S S S S S S S S S S S S    S S S S S S S S S S S S S S S S  
----------------------------------|----------------------------------|
------3-3-----3-3-----3-3-----3-3-|------3-3-----3-3-----2-2-----2-2-|
--2-2-----2-2-----1-1-----1-1-----|--0-0-----0-0-----0-0-----0-0-----|
----------------------------------|----------------------------------|
----------------------------------|----------------------------------|
----------------------------------|----------------------------------|


  S S S S S S S S S S S S S S S S    S S S S S S S S S S S S S S S S  
----------------------------------|----------------------------------|
------3-3-----3-3-----3-3-----3-3-|------3-3-----3-3-----2-2-----2-2-|
--2-2-----2-2-----1-1-----1-1-----|--0-0-----0-0-----0-0-----0-0-----|
----------------------------------|----------------------------------|
----------------------------------|----------------------------------|
----------------------------------|----------------------------------|


  S S S S S S S S S S S S S S S S    S S S S S S S S H          
----------------------------------|----------------------------|
------3-3-----3-3-----3-3-----3-3-|------3-3-----3---2b--------|
--2-2-----2-2-----1-1-----1-1-----|--0-0-----0-0---0-----------|
----------------------------------|----------------------------|
----------------------------------|----------------------------|
----------------------------------|----------------------------|


  Q    E  E  Q    E  E     Q    E  E  Q    E  E     Q    E  E  Q    E  E   
------------------------|------------------------|------------------------|
------------------------|-------------3----3--3--|------------------------|
-------------7----7--7--|--3----3--3--4----4--4--|-------------7----7--7--|
--5----5--5--7----7--7--|--4----4--4--4----4--4--|--5----5--5--7----7--7--|
--5----5--5--5----5--5--|--4----4--4--2----2--2--|--5----5--5--5----5--5--|
--3----3--3-------------|--2----2--2-------------|--3----3--3-------------|


  Q    E  E  Q    E  E     Q    E  E  Q    E  E     Q    E  E  Q    E  E   
------------------------|------------------------|------------------------|
-------------3----3--3--|------------------------|-------------3----3--3--|
--3----3--3--4----4--4--|-------------7----7--7--|--3----3--3--4----4--4--|
--4----4--4--4----4--4--|--5----5--5--7----7--7--|--4----4--4--4----4--4--|
--4----4--4--2----2--2--|--5----5--5--5----5--5--|--4----4--4--2----2--2--|
--2----2--2-------------|--3----3--3-------------|--2----2--2-------------|


  W                   W                   Q    S S S E.   E   S E  S  
-------------------|-------------------|-----------------------------|
-------------------|-------------------|--3--------------------------|
-------------------|--2----------------|--2----9-7-9-9b---9b--9-7--9-|
--5----------------|--2----------------|--0--------------------------|
--5----------------|--0----------------|-----------------------------|
--3----------------|-------------------|-----------------------------|


  E  E  E  S E  E  E  S E     Q    S S S  E.    E    S  E   S  
---------------------------|----------------------------------|
---------------------------|--3----------17b---17b--17-15--17-|
---------------------------|--2----9-7-9----------------------|
--9--9--6--9-9--9--9--9-9--|--0-------------------------------|
---------------------------|----------------------------------|
---------------------------|----------------------------------|


   S  S   S  S   S  S   S  S   S  S   S  S   S  S   S  S   
--16~-0~-16~-0~-16~-0~-16~-0~-15~-0~-15~-0~-15~-0~-15~-0~-|
----------------------------------------------------------|
----------------------------------------------------------|
----------------------------------------------------------|
----------------------------------------------------------|
----------------------------------------------------------|


  Q    S S S E.   E   S E  S    E  E  E  S E  E  E  S E   
-----------------------------|---------------------------|
--3--------------------------|---------------------------|
--2----9-7-9-9b---9b--9-7--9-|---------------------------|
--0--------------------------|--9--9--6--9-9--9--9--9-9--|
-----------------------------|---------------------------|
-----------------------------|---------------------------|


  Q    S S S  E.    E    S  E   S  
----------------------------------|
--3----------17b---17b--17-15--17-|
--2----9-7-9----------------------|
--0-------------------------------|
----------------------------------|
----------------------------------|


   S  S   S  S   S  S   S  S   S  S   S  S   S  S   S  S     W
--16~-0~-16~-0~-16~-0~-16~-0~-15~-0~-15~-0~-15~-0~-15~-0~-|----------------|
----------------------------------------------------------|--3-------------|
----------------------------------------------------------|--2-------------|
----------------------------------------------------------|--0-------------|
----------------------------------------------------------|----------------|
----------------------------------------------------------|----------------|


  Q    E  E  Q    E  E     Q    E  E  Q    E  E     Q    E  E  Q    E  E   
------------------------|------------------------|------------------------|
------------------------|-------------3----3--3--|------------------------|
-------------7----7--7--|--3----3--3--4----4--4--|-------------7----7--7--|
--5----5--5--7----7--7--|--4----4--4--4----4--4--|--5----5--5--7----7--7--|
--5----5--5--5----5--5--|--4----4--4--2----2--2--|--5----5--5--5----5--5--|
--3----3--3-------------|--2----2--2-------------|--3----3--3-------------|


  Q    E  E  Q    E  E     Q    E  E  Q    E  E     Q    E  E  Q    E  E   
------------------------|------------------------|------------------------|
-------------3----3--3--|------------------------|-------------3----3--3--|
--3----3--3--4----4--4--|-------------7----7--7--|--3----3--3--4----4--4--|
--4----4--4--4----4--4--|--5----5--5--7----7--7--|--4----4--4--4----4--4--|
--4----4--4--2----2--2--|--5----5--5--5----5--5--|--4----4--4--2----2--2--|
--2----2--2-------------|--3----3--3-------------|--2----2--2-------------|


  W                   W                   Q    E  Q    E  Q     
-------------------|-------------------|-----------------------|
-------------------|-------------------|--3-------3-------3----|
-------------------|--2----------------|--2-------2-------2----|
--5----------------|--2----------------|--0-------0-------0----|
--5----------------|--0----------------|-----------------------|
--3----------------|-------------------|-----------------------|


  E  Q    E   H           W                  
-------------14--------|--L----------------||
-----------------------|-------------------||
-----------------------|-------------------||
-----------------------|-------------------||
-----------------------|-------------------||
-----------------------|-------------------||


-- Guitar 2

     Q    S S S E.   E   S E  S    E  E  E  S E  E  E  S E   
E||-----------------------------|---------------------------|
B||--3----5-3-5-5b---5b--5-3--5-|---------------------------|
G||--2--------------------------|--4--4-----4------------4--|
D||--0--------------------------|--------6----6--5--5--5----|
A||-----------------------------|---------------------------|
E||-----------------------------|---------------------------|


  Q    S S S E.   E   S E  S    W               Q    S S S E.   E   S E  S  
-----------------------------|---------------|-----------------------------|
--3----5-3-5-5b---5b--5-3--5-|---------------|--3----5-3-5-5b---5b--5-3--5-|
--2--------------------------|---------------|--2--------------------------|
--0--------------------------|---------------|--0--------------------------|
-----------------------------|---------------|-----------------------------|
-----------------------------|---------------|-----------------------------|


  E  E  E  S E  E  E  S E     Q    S S S E.   E   S E  S    W
---------------------------|-----------------------------|-----------------|
---------------------------|--3----5-3-5-5b---5b--5-3--5-|-----------------|
--4--4-----4------------4--|--2--------------------------|-----------------|
--------6----6--5--5--5----|--0--------------------------|-----------------|
---------------------------|-----------------------------|-----------------|
---------------------------|-----------------------------|-----------------|


  Q    S S S E.   E   S E  S    E  E  E  S E  E  E  S E   
-----------------------------|---------------------------|
--3----5-3-5-5b---5b--5-3--5-|---------------------------|
--2--------------------------|--4--4-----4------------4--|
--0--------------------------|--------6----6--5--5--5----|
-----------------------------|---------------------------|
-----------------------------|---------------------------|


  Q    S S S E.   E   S E  S    W                   W                 
-----------------------------|-------------------|-------------------|
--3----5-3-5-5b---5b--5-3--5-|-------------------|--3----------------|
--2--------------------------|-------------------|--2----------------|
--0--------------------------|-------------------|--0----------------|
-----------------------------|-------------------|-------------------|
-----------------------------|-------------------|-------------------|


  H        H           W                   W                 
--------------------|-------------------|-------------------|
--L-----------------|-------------------|-------------------|
--L-----------------|-------------------|-------------------|
--L-----------------|-------------------|-------------------|
--------------------|-------------------|-------------------|
--------------------|-------------------|-------------------|


  W                  W                  W                  W
------------------|------------------|------------------|------------------|
------------------|------------------|------------------|------------------|
------------------|------------------|------------------|------------------|
------------------|------------------|------------------|------------------|
------------------|------------------|------------------|------------------|
------------------|------------------|------------------|------------------|


  W                  W                  W                  W
------------------|------------------|------------------|------------------|
------------------|------------------|------------------|------------------|
------------------|------------------|------------------|------------------|
------------------|------------------|------------------|------------------|
------------------|------------------|------------------|------------------|
------------------|------------------|------------------|------------------|


  Q    E  E  Q    E  E     Q    E  E  Q    E  E     Q    E  E  Q    E  E   
------------------------|------------------------|------------------------|
------------------------|-------------3----3--3--|------------------------|
-------------7----7--7--|--3----3--3--4----4--4--|-------------7----7--7--|
--5----5--5--7----7--7--|--4----4--4--4----4--4--|--5----5--5--7----7--7--|
--5----5--5--5----5--5--|--4----4--4--2----2--2--|--5----5--5--5----5--5--|
--3----3--3-------------|--2----2--2-------------|--3----3--3-------------|


  Q    E  E  Q    E  E     Q    E  E  Q    E  E     Q    E  E  Q    E  E   
------------------------|------------------------|------------------------|
-------------3----3--3--|------------------------|-------------3----3--3--|
--3----3--3--4----4--4--|-------------7----7--7--|--3----3--3--4----4--4--|
--4----4--4--4----4--4--|--5----5--5--7----7--7--|--4----4--4--4----4--4--|
--4----4--4--2----2--2--|--5----5--5--5----5--5--|--4----4--4--2----2--2--|
--2----2--2-------------|--3----3--3-------------|--2----2--2-------------|


  W                   W                   Q    S S S E.   E   S E  S  
-------------------|-------------------|-----------------------------|
-------------------|-------------------|--3----5-3-5-5b---5b--5-3--5-|
-------------------|--2----------------|--2--------------------------|
--5----------------|--2----------------|--0--------------------------|
--5----------------|--0----------------|-----------------------------|
--3----------------|-------------------|-----------------------------|


  E  E  E  S E  E  E  S E     Q    S S S E.   E   S E  S    W
---------------------------|-----------------------------|-----------------|
---------------------------|--3----5-3-5-5b---5b--5-3--5-|-----------------|
--4--4-----4------------4--|--2--------------------------|-----------------|
--------6----6--5--5--5----|--0--------------------------|-----------------|
---------------------------|-----------------------------|-----------------|
---------------------------|-----------------------------|-----------------|


  Q    S S S E.   E   S E  S    E  E  E  S E  E  E  S E   
-----------------------------|---------------------------|
--3----5-3-5-5b---5b--5-3--5-|---------------------------|
--2--------------------------|--4--4-----4------------4--|
--0--------------------------|--------6----6--5--5--5----|
-----------------------------|---------------------------|
-----------------------------|---------------------------|


  Q    S S S E.   E   S E  S    W                   W                 
-----------------------------|-------------------|-------------------|
--3----5-3-5-5b---5b--5-3--5-|-------------------|--3----------------|
--2--------------------------|-------------------|--2----------------|
--0--------------------------|-------------------|--0----------------|
-----------------------------|-------------------|-------------------|
-----------------------------|-------------------|-------------------|


  H        H           W                   W                 
--------------------|-------------------|-------------------|
--L-----------------|-------------------|-------------------|
--L-----------------|-------------------|-------------------|
--L-----------------|-------------------|-------------------|
--------------------|-------------------|-------------------|
--------------------|-------------------|-------------------|


  W                  W                  W                  W
------------------|------------------|------------------|------------------|
------------------|------------------|------------------|------------------|
------------------|------------------|------------------|------------------|
------------------|------------------|------------------|------------------|
------------------|------------------|------------------|------------------|
------------------|------------------|------------------|------------------|


  W                  W                  W                  W
------------------|------------------|------------------|------------------|
------------------|------------------|------------------|------------------|
------------------|------------------|------------------|------------------|
------------------|------------------|------------------|------------------|
------------------|------------------|------------------|------------------|
------------------|------------------|------------------|------------------|


  Q    E  E  Q    E  E     Q    E  E  Q    E  E     Q    E  E  Q    E  E   
------------------------|------------------------|------------------------|
------------------------|-------------3----3--3--|------------------------|
-------------7----7--7--|--3----3--3--4----4--4--|-------------7----7--7--|
--5----5--5--7----7--7--|--4----4--4--4----4--4--|--5----5--5--7----7--7--|
--5----5--5--5----5--5--|--4----4--4--2----2--2--|--5----5--5--5----5--5--|
--3----3--3-------------|--2----2--2-------------|--3----3--3-------------|


  Q    E  E  Q    E  E     Q    E  E  Q    E  E     Q    E  E  Q    E  E   
------------------------|------------------------|------------------------|
-------------3----3--3--|------------------------|-------------3----3--3--|
--3----3--3--4----4--4--|-------------7----7--7--|--3----3--3--4----4--4--|
--4----4--4--4----4--4--|--5----5--5--7----7--7--|--4----4--4--4----4--4--|
--4----4--4--2----2--2--|--5----5--5--5----5--5--|--4----4--4--2----2--2--|
--2----2--2-------------|--3----3--3-------------|--2----2--2-------------|


  W                   W                   Q    S S S E.   E   S E  S  
-------------------|-------------------|-----------------------------|
-------------------|-------------------|--3----5-3-5-5b---5b--5-3--5-|
-------------------|--2----------------|--2--------------------------|
--5----------------|--2----------------|--0--------------------------|
--5----------------|--0----------------|-----------------------------|
--3----------------|-------------------|-----------------------------|


  E  E  E  S E  E  E  S E     Q    S S S E.   E   S E  S    W                 
---------------------------|-----------------------------|-----------------|
---------------------------|--3----5-3-5-5b---5b--5-3--5-|-----------------|
--4--4-----4------------4--|--2--------------------------|-----------------|
--------6----6--5--5--5----|--0--------------------------|-----------------|
---------------------------|-----------------------------|-----------------|
---------------------------|-----------------------------|-----------------|


  Q    S S S E.   E   S E  S    E  E  E  S E  E  E  S E   
-----------------------------|---------------------------|
--3----5-3-5-5b---5b--5-3--5-|---------------------------|
--2--------------------------|--4--4-----4------------4--|
--0--------------------------|--------6----6--5--5--5----|
-----------------------------|---------------------------|
-----------------------------|---------------------------|


  Q    S S S E.   E   S E  S    W                   W                 
-----------------------------|-------------------|-------------------|
--3----5-3-5-5b---5b--5-3--5-|-------------------|--3----------------|
--2--------------------------|-------------------|--2----------------|
--0--------------------------|-------------------|--0----------------|
-----------------------------|-------------------|-------------------|
-----------------------------|-------------------|-------------------|


  Q    E  E  Q    E  E     Q    E  E  Q    E  E     Q    E  E  Q    E  E   
------------------------|------------------------|------------------------|
------------------------|-------------3----3--3--|------------------------|
-------------7----7--7--|--3----3--3--4----4--4--|-------------7----7--7--|
--5----5--5--7----7--7--|--4----4--4--4----4--4--|--5----5--5--7----7--7--|
--5----5--5--5----5--5--|--4----4--4--2----2--2--|--5----5--5--5----5--5--|
--3----3--3-------------|--2----2--2-------------|--3----3--3-------------|


  Q    E  E  Q    E  E     Q    E  E  Q    E  E     Q    E  E  Q    E  E   
------------------------|------------------------|------------------------|
-------------3----3--3--|------------------------|-------------3----3--3--|
--3----3--3--4----4--4--|-------------7----7--7--|--3----3--3--4----4--4--|
--4----4--4--4----4--4--|--5----5--5--7----7--7--|--4----4--4--4----4--4--|
--4----4--4--2----2--2--|--5----5--5--5----5--5--|--4----4--4--2----2--2--|
--2----2--2-------------|--3----3--3-------------|--2----2--2-------------|


  W                   W                   Q    E  Q    E  Q     
-------------------|-------------------|-----------------------|
-------------------|-------------------|--3-------3-------3----|
-------------------|--2----------------|--2-------2-------2----|
--5----------------|--2----------------|--0-------0-------0----|
--5----------------|--0----------------|-----------------------|
--3----------------|-------------------|-----------------------|


  E  E  Q    H           W                  
----------------------|-------------------||
-----3--L----L--------|--L----------------||
-----2--L----L--------|--L----------------||
-----0--L----L--------|--L----------------||
----------------------|-------------------||
----------------------|-------------------||




Duration Legend
---------------
W - whole
H - half
Q - quarter
E - 8th
S - 16th
T - 32nd
X - 64th
. - note dotted
|-n-|  - n-tuplets


Tablature Legend
----------------
L - tied note
x - dead note
g - grace note
(n) - ghost note
> - accentuded note
NH - natural harmonic
AH - artificial harmonic
TH - tapped harmonic
SH - semi harmonic
PH - pitch harmonic
h - hammer on
p - pull off
b - bend
br - bendRelease
pb - preBend
pbr - preBendRelease
brb - bendReleaseBend
\n/ - tremolo bar dip
\n - tremolo bar dive
-/n - tremolo bar Release up
/n\ - tremolo bar inverted dip
/n - tremolo bar return
-\n - tremolo bar Release down
S - shift slide
s - legato slide
/ -  slide into from below or out of upwards
\ -  slide into from above or out of downwards
~ - vibrato
W - wide vibrato
tr - trill
TP - tremolo picking
T - tapping
S - slap
P - pop
< - fade in
^ - brush up
v - brush down
----------------------------------------------------------------------------
comments
print report bad tab
4 comments total. Showing first comments.
+2 reply
Mate.Feed.Kill. wrote on March 27 2008, 06:06 pm

how do u do an open string vibrato, shake the guitar?

+1 reply
Infant wrote on March 27 2008, 08:27 pm

or use an guitar effect...

+1 reply
The Gore Child wrote on July 9 2008, 03:55 pm

You could use the whammy bar... or wiggle the string after the bridge (?) before the tuning knobs.

I want to post or [tab]
guest
You may want to rate the tab now too:
select rating
Please do not post tabs as comments. Select "correction" instead!