Oops, an error
Loading. Please wait.

Des Tab

by Muse
ver2
ver2

Whole song

Interactive

More versions @911Tabs.com
559 views 3 this week
1 commentread comment
1 2 3 4 5
excellent!
x 1
Autoscroll
+/-
esc
set tempo
stop
Contributor
Hey! There's an official Ultimate Guitar app which is ideal
for learning songs when you're away from computer. Get the app
WARNING: You are trying to view
                                    content from Ultimate-Guitar.com
                                    in an unauthorized application,
                                    which is prohibited.

                                    Please use an official Ultimate
                                    Guitar Tabs application for iPhone,
                                    iPad or Android to access legitimate
                                    chords, guitar, bass, and drum tabs
                                    from Ultimate-Guitar.com database.

                                    Type "ultimate guitar tabs" in Apple
                                    App Store's or Android Market's
                                    search to find the application.
#----------------------------------PLEASE NOTE---------------------------------#
#This file is the author's own work and represents their interpretation of the #
#song. You may only use this file for private study, scholarship, or research. #
#------------------------------------------------------------------------------##

Enjoy people, Exported it from me powertab.....


Gtr I (E A D G B E) - 'Guitar'
Gtr II (E A D G) - 'Bass'
Gtr III (E A D G B E) - 'Gtr 3'
Gtr IV (E A D G B E) - 'Guitar Vol Down'
Gtr V (E A D G B E) - 'Vocal Melody'
Gtr VI (E A D G B E) - 'Cant remember this one duh'

    Q=104
    N.C.
   4/4
    Gtr I
    T     T     T      T     T   T
    S S S S S S S S S  S S S S S S S
||-------------------------------------||
||o-----------------------------------o||
||-------------------------------------||
||--9-x-x-8-x-x-9-x-x-11-x-x-9-x-8-x---||
||o-7-7-7-7-7-7-7-7-7--7-7-7-7-7-7-7--o||
||-------------------------------------||


    E
    S S S S S S S S S  S S S  S  S S  S    S S S S S S S S  S   S S S S S S S
||---------------------------------------|-------------------------------------|
||o--------------------------------------|-------------------------------------|
||---------------------------------------|-------------------------------------|
||--9-x-x-8-x-x-9-x-x-11-x-x--9--x-8--x--|-9-x-x-8-x-x-9-x--x--11-x-x-9-x-8-x--|
||o-7-7-7-7-7-7-7-7-7--7-7-7--7--7-7--7--|-7-7-7-7-7-7-7-7--7---7-7-7-7-7-7-7--|
||---------------------------------------|-------------------------------------|
|
|   Gtr II
|   Q       H                 S       S    H                H
||---------------------------------------|-------------------------------------|
||o--------------------------------------|-------------------------------------|
||o---------7----------------(7)S====(2)-|-------------------------------------|
||--0------------------------------------|-0---------------(0)-----------------|


  G#m
  S S S S S S S S S  S S S S S S S   S S S S S S S S S  S S S S S S S
|----------------------------------|-------------------------------------||
|----------------------------------|------------------------------------o||
|----------------------------------|-------------------------------------||
|-9-x-x-8-x-x-9-x-x-11-x-x-9-x-8-x-|-9-x-x-8-x-x-9-x-x-11-x-x-9-x-8-x----||
|-6-6-6-6-6-6-6-6-6--6-6-6-6-6-6-6-|-6-6-6-6-6-6-6-6-6--6-6-6-6-6-6-6---o||
|----------------------------------|-------------------------------------||
|
| W                                  W
|----------------------------------|-------------------------------------||
|----------------------------------|------------------------------------o||
|----------------------------------|------------------------------------o||
|-4--------------------------------|-4-----------------------------------||


  E
  Gtr VI
  T     T     T      T     T   T     T     T     T      T     T   T
  S S S S S S S S S  S S S S S S S   S S S S S S S S S  S S S S S S S
|----------------------------------|------------------------------------|
|----------------------------------|------------------------------------|
|----------------------------------|------------------------------------|
|-9-x-x-8-x-x-9-x-x-11-x-x-9-x-8-x-|-9-x-x-8-x-x-9-x-x-11-x-x-9-x-8-x---|
|-7-7-7-7-7-7-7-7-7--7-7-7-7-7-7-7-|-7-7-7-7-7-7-7-7-7--7-7-7-7-7-7-7---|
|----------------------------------|------------------------------------|
|
| S S S S S S S S S  S S S S S S S   S S S S S S S S S  S S S S S S S
|----------------------------------|------------------------------------|
|----------------------------------|------------------------------------|
|-7-7-7-7-7-7-7-7-7--7-7-7-7-7-7-7-|-7-7-7-7-7-7-7-7-7--7-7-7-7-7-7-7---|
|----------------------------------|------------------------------------|


  G#m
  T     T     T      T     T   T     T     T     T      T     T   T
  S S S S S S S S S  S S S S S S S   S S S S S S S S S  S S S S S S S
|----------------------------------|------------------------------------|
|----------------------------------|------------------------------------|
|----------------------------------|------------------------------------|
|-9-x-x-8-x-x-9-x-x-11-x-x-9-x-8-x-|-9-x-x-8-x-x-9-x-x-11-x-x-9-x-8-x---|
|-7-7-7-7-7-7-7-7-7--7-7-7-7-7-7-7-|-7-7-7-7-7-7-7-7-7--7-7-7-7-7-7-7---|
|----------------------------------|------------------------------------|
|
| S S S S S S S S S  S S S S S S S   S S S S S S S S S  S S S S S S S
|----------------------------------|------------------------------------|
|----------------------------------|------------------------------------|
|----------------------------------|------------------------------------|
|-4-4-4-4-4-4-4-4-4--4-4-4-4-4-4-4-|-4-4-4-4-4-4-4-4-4--4-4-4-4-4-4-4---|


  E
  T     T     T      T     T   T     T     T     T      T     T   T
  S S S S S S S S S  S S S S S S S   S S S S S S S S S  S S S S S S S
|----------------------------------|------------------------------------|
|----------------------------------|------------------------------------|
|----------------------------------|------------------------------------|
|-9-x-x-8-x-x-9-x-x-11-x-x-9-x-8-x-|-9-x-x-8-x-x-9-x-x-11-x-x-9-x-8-x---|
|-7-7-7-7-7-7-7-7-7--7-7-7-7-7-7-7-|-7-7-7-7-7-7-7-7-7--7-7-7-7-7-7-7---|
|----------------------------------|------------------------------------|
|
| S S S S S S S S S  S S S S S S S   S S S S S S S S S  S S S S S S S
|----------------------------------|------------------------------------|
|----------------------------------|------------------------------------|
|-7-7-7-7-7-7-7-7-7--7-7-7-7-7-7-7-|-7-7-7-7-7-7-7-7-7--7-7-7-7-7-7-7---|
|----------------------------------|------------------------------------|


  F#
  T     T     T      T     T   T     T     T     T      T     T   T
  S S S S S S S S S  S S S S S S S   S S S S S S S S S  S S S S S S S
|----------------------------------|------------------------------------|
|----------------------------------|------------------------------------|
|----------------------------------|------------------------------------|
|-9-x-x-8-x-x-9-x-x-11-x-x-9-x-8-x-|-9-x-x-8-x-x-9-x-x-11-x-x-9-x-8-x---|
|-7-7-7-7-7-7-7-7-7--7-7-7-7-7-7-7-|-7-7-7-7-7-7-7-7-7--7-7-7-7-7-7-7---|
|----------------------------------|------------------------------------|
|
| S S S S S S S S S  S S S S S S S   S S S S S S S S S  S S S S S S S
|----------------------------------|------------------------------------|
|----------------------------------|------------------------------------|
|-9-9-9-9-9-9-9-9-9--9-9-9-9-9-9-9-|-9-9-9-9-9-9-9-9-9--9-9-9-9-9-9-9---|
|----------------------------------|------------------------------------|


  E
  Gtr I
  S S S S S S S S S   S S S S S  S   S   S S S S S S S S S  S S S S S S S
|--------------------------------------|-------------------------------------|
|--------------------------------------|-------------------------------------|
|--------------------------------------|-------------------------------------|
|-9-x-x-8-x-x-9-x-x--11-x-x-9-x--8---x-|-9-x-x-8-x-x-9-x-x-11-x-x-9-x-8-x----|
|-7-7-7-7-7-7-7-7-7---7-7-7-7-7--7---7-|-7-7-7-7-7-7-7-7-7--7-7-7-7-7-7-7----|
|--------------------------------------|-------------------------------------|
|
| H               Q.             S   S   W
|--------------------------------------|-------------------------------------|
|--------------------------------------|-------------------------------------|
|-7---------------7-------------(7)S(2)|-------------------------------------|
|--------------------------------------|-0-----------------------------------|
|
| Gtr V
| S S S S S S S S S   S S S S S  S   S   S S S S S S S S S  S S S S S S S
|--------------------------------------|-------------------------------------|
|--------------------------------------|-------------------------------------|
|-9-9-9-9-9-9-9-9-9---9-9-9-9-9--9---9s|=8-8-8-8-8-8-8-8-8--8-8-8s6-6-6-6s===|
|--------------------------------------|-------------------------------------|
|-7-7-7-7-7-7-7-7-7---7-7-7-7-7--7---7s|=6-6-6-6-6-6-6-6-6--6-6-6s4-4-4-4s===|
|--------------------------------------|-------------------------------------|


  G#m
  S S S S S S S S S  S S S S S S S   S S S S S S S S S  S S S S S S S
|----------------------------------|------------------------------------|
|----------------------------------|------------------------------------|
|----------------------------------|------------------------------------|
|-9-x-x-8-x-x-9-x-x-11-x-x-9-x-8-x-|-9-x-x-8-x-x-9-x-x-11-x-x-9-x-8-x---|
|-6-6-6-6-6-6-6-6-6--6-6-6-6-6-6-6-|-6-6-6-6-6-6-6-6-6--6-6-6-6-6-6-6---|
|----------------------------------|------------------------------------|
|
| W                                  W
|----------------------------------|------------------------------------|
|----------------------------------|------------------------------------|
|----------------------------------|------------------------------------|
|-4--------------------------------|-4----------------------------------|
|
| S S S S S S S S S  S S S S S S S   S S S S S S S S S  S S S S S S S
|----------------------------------|------------------------------------|
|----------------------------------|------------------------------------|
|-8-8-8-8-8-8-8-8-8--8-8-8-8-8-8-8-|-8-8-8-8-8-8-8-8-8--8-8-8s6-6-6-6---|
|----------------------------------|------------------------------------|
|-6-6-6-6-6-6-6-6-6--6-6-6-6-6-6-6-|-6-6-6-6-6-6-6-6-6--6-6-6s4-4-4-4---|
|----------------------------------|------------------------------------|


  E
  S S S S S S S S S   S S S S S  S   S    S S S S S S S S S  S S S S S S S
|---------------------------------------|------------------------------------|
|---------------------------------------|------------------------------------|
|---------------------------------------|------------------------------------|
|-9-x-x-8-x-x-9-x-x--11-x-x-9-x--8---x--|-9-x-x-8-x-x-9-x-x-11-x-x-9-x-8-x---|
|-7-7-7-7-7-7-7-7-7---7-7-7-7-7--7---7--|-7-7-7-7-7-7-7-7-7--7-7-7-7-7-7-7---|
|---------------------------------------|------------------------------------|
|
| H               Q.             S   S    W
|---------------------------------------|------------------------------------|
|---------------------------------------|------------------------------------|
|-7---------------7-------------(7)S(2)-|------------------------------------|
|---------------------------------------|-0----------------------------------|
|
| S S S S S S S S S   S S S S S  S   S    S S S S S S S S S  S S S S S S S
|---------------------------------------|------------------------------------|
|---------------------------------------|------------------------------------|
|-6-6-6-6-6-6-6-6-6---6-6-6-6-6--6---6--|-6-6-6-6s8-8-8-8s6--6-6-6s4-4-4-4---|
|---------------------------------------|------------------------------------|
|-4-4-4-4-4-4-4-4-4---4-4-4-4-4--4---4--|-4-4-4-4s6-6-6-6s4--4-4-4s2-2-2-2---|
|---------------------------------------|------------------------------------|


  G#m
  S S S S S S S S S  S S S S S S S   S S S S S S S S S  S S S S S S S
|----------------------------------|------------------------------------|
|----------------------------------|------------------------------------|
|----------------------------------|------------------------------------|
|-9-x-x-8-x-x-9-x-x-11-x-x-9-x-8-x-|-9-x-x-8-x-x-9-x-x-11-x-x-9-x-8-x---|
|-6-6-6-6-6-6-6-6-6--6-6-6-6-6-6-6-|-6-6-6-6-6-6-6-6-6--6-6-6-6-6-6-6---|
|----------------------------------|------------------------------------|
|
| W                                  W
|----------------------------------|------------------------------------|
|----------------------------------|------------------------------------|
|----------------------------------|------------------------------------|
|-4--------------------------------|-4----------------------------------|
|
| S S S S S S S S S  S S S S S S S   S S S S S S S S S  S S S S S S S
|----------------------------------|------------------------------------|
|----------------------------------|------------------------------------|
|-4-4-4-4-4-4-4-4-4--4-4-4-4-4-4-4-|-4-4-4-4-4-4-4-4s3--3-3-3s4-4-4-4---|
|----------------------------------|------------------------------------|
|-2-2-2-2-2-2-2-2-2--2-2-2-2-2-2-2-|-2-2-2-2-2-2-2-2s1--1-1-1s2-2-2-2---|
|----------------------------------|------------------------------------|


  E
  T     T     T      T     T   T     T     T     T      T     T   T
  S S S S S S S S S  S S S S S S S   S S S S S S S S S  S S S S S S S
|----------------------------------|------------------------------------|
|----------------------------------|------------------------------------|
|----------------------------------|------------------------------------|
|-9-x-x-8-x-x-9-x-x-11-x-x-9-x-8-x-|-9-x-x-8-x-x-9-x-x-11-x-x-9-x-8-x---|
|-7-7-7-7-7-7-7-7-7--7-7-7-7-7-7-7-|-7-7-7-7-7-7-7-7-7--7-7-7-7-7-7-7---|
|----------------------------------|------------------------------------|
|
| S S S S S S S S S  S S S S S S S   S S S S S S S S S  S S S S S S S
|----------------------------------|------------------------------------|
|----------------------------------|------------------------------------|
|-7-7-7-7-7-7-7-7-7--7-7-7-7-7-7-7-|-7-7-7-7-7-7-7-7-7--7-7-7-7-7-7-7---|
|----------------------------------|------------------------------------|
|
| S S S S S S S S S  S S S S S S S   S S S S S S S S S  S S S S S S S
|----------------------------------|------------------------------------|
|----------------------------------|------------------------------------|
|-6-6-6-6-6-6-6-6-6--6-6-6-6-6-6-6-|-6-6-6-6-6-6-6-6-6--6-6-6s4-4-4-4---|
|----------------------------------|------------------------------------|
|-4-4-4-4-4-4-4-4-4--4-4-4-4-4-4-4-|-4-4-4-4-4-4-4-4-4--4-4-4s2-2-2-2---|
|----------------------------------|------------------------------------|


  G#m
  T     T     T      T     T   T     T     T     T      T     T   T
  S S S S S S S S S  S S S S S S S   S S S S S S S S S  S S S S S S S
|----------------------------------|------------------------------------|
|----------------------------------|------------------------------------|
|----------------------------------|------------------------------------|
|-9-x-x-8-x-x-9-x-x-11-x-x-9-x-8-x-|-9-x-x-8-x-x-9-x-x-11-x-x-9-x-8-x---|
|-7-7-7-7-7-7-7-7-7--7-7-7-7-7-7-7-|-7-7-7-7-7-7-7-7-7--7-7-7-7-7-7-7---|
|----------------------------------|------------------------------------|
|
| S S S S S S S S S  S S S S S S S   S S S S S S S S S  S S S S S S S
|----------------------------------|------------------------------------|
|----------------------------------|------------------------------------|
|----------------------------------|------------------------------------|
|-4-4-4-4-4-4-4-4-4--4-4-4-4-4-4-4-|-4-4-4-4-4-4-4-4-4--4-4-4-4-4-4-4---|
|
| S S S S S S S S S  S S S S S S S   S S S S S S S S S  S S S S S S S
|----------------------------------|------------------------------------|
|----------------------------------|------------------------------------|
|-6-6-6-6-6-6s4-4s6--6-6-6s4-4-4-4-|-4-4-4-4-4-4-4-4-4--4-4-4s3-3-3-3---|
|----------------------------------|------------------------------------|
|-4-4-4-4-4-4s2-2s4--4-4-4s2-2-2-2-|-2-2-2-2-2-2-2-2-2--2-2-2s1-1-1-1---|
|----------------------------------|------------------------------------|


  E
  T     T     T      T     T   T     T     T     T      T     T   T
  S S S S S S S S S  S S S S S S S   S S S S S S S S S  S S S S S S S
|----------------------------------|------------------------------------|
|----------------------------------|------------------------------------|
|----------------------------------|------------------------------------|
|-9-x-x-8-x-x-9-x-x-11-x-x-9-x-8-x-|-9-x-x-8-x-x-9-x-x-11-x-x-9-x-8-x---|
|-7-7-7-7-7-7-7-7-7--7-7-7-7-7-7-7-|-7-7-7-7-7-7-7-7-7--7-7-7-7-7-7-7---|
|----------------------------------|------------------------------------|
|
| S S S S S S S S S  S S S S S S S   S S S S S S S S S  S S S S S S S
|----------------------------------|------------------------------------|
|----------------------------------|------------------------------------|
|-7-7-7-7-7-7-7-7-7--7-7-7-7-7-7-7-|-7-7-7-7-7-7-7-7-7--7-7-7-7-7-7-7---|
|----------------------------------|------------------------------------|
|
| S S S S S S S S S  S S S S S S S   S S S S S S S S S  S S S S S S S
|----------------------------------|------------------------------------|
|----------------------------------|------------------------------------|
|-4-4-4-4-4-4-4-4-4--4-4-4-4-4-4-4-|-4-4-4-4-4-4-4-4s3--3-3-3-3-3s4-4---|
|----------------------------------|------------------------------------|
|-2-2-2-2-2-2-2-2-2--2-2-2-2-2-2-2-|-2-2-2-2-2-2-2-2s1--1-1-1-1-1s2-2---|
|----------------------------------|------------------------------------|


  F#
  S S S S S S S S S  S S S S S S S   S S S S S S S S  Q                S  S
|----------------------------------|------------------------------------------|
|----------------------------------|------------------------------------------|
|----------------------------------|------------------------------------------|
|-9-x-x-8-x-x-9-x-x-11-x-x-9-x-8-x-|-9-x-x-8-x-x-9-x-11pb13r==========13-13---|
|-7-7-7-7-7-7-7-7-7--7-7-7-7-7-7-7-|-7-7-7-7-7-7-7-7--------------------------|
|----------------------------------|------------------------------------------|
|
| S S S S S S S S S  S S S S S S S   S S S S S S S S  S     S S S S S  S  S
|----------------------------------|------------------------------------------|
|----------------------------------|------------------------------------------|
|-9-9-9-9-9-9-9-9-9--9-9-9-9-9-9-9-|-9-9-9-9-9-9-9-9--9-----9-9-9-9-9--9--9---|
|----------------------------------|------------------------------------------|
|
| S S S S S S S S S  S S S S S S S   S S S S S S S H
|----------------------------------|------------------------------------------|
|----------------------------------|------------------------------------------|
|-4-4s6-6-6-6-6-6-6--6-6-6-6-6-6-6-|-6-6-6-6-6-6-6-6--------------------------|
|----------------------------------|------------------------------------------|
|-2-2s4-4-4-4-4-4-4--4-4-4-4-4-4-4-|-4-4-4-4-4-4-4-4--------------------------|
|----------------------------------|------------------------------------------|


    B
   4/4
    Gtr I
    S S S S S S S S  S S S S S S S S
||-----------------------------------|
||o----------------------------------|
||--8-8-8-8-8-8-8-8--9-9-9-9-9-9-9-9-|
||--x-x-x-x-x-x-x-x--x-x-x-x-x-x-x-x-|
||o-6-6-6-6-6-6-6-6--7-7-7-7-7-7-7-7-|
||-----------------------------------|
|
|   Gtr II
|   S S S S S S S S  S S S S S S S S
||-----------------------------------|
||o---9-9---9-9---9----9-9---9-9---9-|
||o----------------------------------|
||--7-----7-----7----7-----7-----7---|


   S  S  S  S  S  S  S  S   S  S  S  S  S  S  S  S
|-----------------------------------------------------||
|----------------------------------------------------o||
|-10-10-10-10-10-10-10-10--11-11-11-11-11-11-11-11----||
|--x--x--x--x--x--x--x--x---x--x--x--x--x--x--x--x----||
|--8--8--8--8--8--8--8--8---9--9--9--9--9--9--9--9---o||
|-----------------------------------------------------||
|
|  S  S  S  S  S  S  S  S   S  S  S  S  S  S  S  S
|-----------------------------------------------------||
|-----9--9-----9--9-----9------9--9-----9--9-----9---o||
|----------------------------------------------------o||
|--7--------7--------7------7--------7--------7-------||


  $
  B
  S S S S S S S S S S S S S S S S
|---------------------------------|
|---------------------------------|
|-8-8-8-8-8-8-8-8-9-9-9-9-9-9-9-9-|
|-x-x-x-x-x-x-x-x-x-x-x-x-x-x-x-x-|
|-6-6-6-6-6-6-6-6-7-7-7-7-7-7-7-7-|
|---------------------------------|
|
| S S S S S S S S S S S S S S S S
|---------------------------------|
|---9-9---9-9---9---9-9---9-9---9-|
|---------------------------------|
|-7-----7-----7---7-----7-----7---|
|
| Gtr V
| S S S S S S S S S S S S S S S S
|---------------------------------|
|---------------------------------|
|-4-4-4-4-4-4-4-4-4-4-4-4-4-4-4-4-|
|---------------------------------|
|-2-2-2-2-2-2-2-2-2-2-2-2-2-2-2-2-|
|---------------------------------|


   S  S  S  S  S  S  S  S  S  S  S  S  S  S  S  S
|----------------------------------------------------|
|----------------------------------------------------|
|-10-10-10-10-10-10-10-10-11-11-11-11-11-11-11-11----|
|--x--x--x--x--x--x--x--x--x--x--x--x--x--x--x--x----|
|--8--8--8--8--8--8--8--8--9--9--9--9--9--9--9--9----|
|----------------------------------------------------|
|
|  S  S  S  S  S  S  S  S  S  S  S  S  S  S  S  S
|----------------------------------------------------|
|-----9--9-----9--9-----9-----9--9-----9--9-----9----|
|----------------------------------------------------|
|--7--------7--------7-----7--------7--------7-------|
|
|  S  S  S  S  S  S  S  S  S  S  S  S  S  S  S  S
|----------------------------------------------------|
|----------------------------------------------------|
|--4--4--4--4--4--4--4--4s=6--6--6--6s=8--8--8--8s===|
|----------------------------------------------------|
|--2--2--2--2--2--2--2--2s=4--4--4--4s=6--6--6--6s===|
|----------------------------------------------------|


  E
   S  S  S  S  S  S  S  S  S  S  S  S  S  S  S  S
|-------------------------------------------------|
|-------------------------------------------------|
|-12-12-12-12-12-12-12-12-13-13-13-13-13-13-13-13-|
|--x--x--x--x--x--x--x--x--x--x--x--x--x--x--x--x-|
|-10-10-10-10-10-10-10-10-11-11-11-11-11-11-11-11-|
|-------------------------------------------------|
|
|  S  S  S  S  S  S  S  S  S  S  S  S  S  S  S  S
|-------------------------------------------------|
|-------------------------------------------------|
|-----7--7-----7--7-----7-----7--7-----7--7-----7-|
|--0--------0--------0-----0--------0--------0----|
|
|  S  S  S  S  S  S  S  S  S  S  S  S  S  S  S  S
|-------------------------------------------------|
|-------------------------------------------------|
|--6--6--6--6--6--6--6--6s=4--4--4--4--4--4--4--4-|
|-------------------------------------------------|
|--4--4--4--4--4--4--4--4s=2--2--2--2--2--2--2--2-|
|-------------------------------------------------|


   S  S  S  S  S  S  S  S  S  S  S  S  S  S  S  S
|----------------------------------------------------|
|----------------------------------------------------|
|-14-14-14-14-14-14-14-14-15-15-15-15-15-15-15-15----|
|--x--x--x--x--x--x--x--x--x--x--x--x--x--x--x--x----|
|-12-12-12-12-12-12-12-12-13-13-13-13-13-13-13-13----|
|----------------------------------------------------|
|
|  S  S  S  S  S  S  S  S  S  S  S  S  S  S  S  S
|----------------------------------------------------|
|----------------------------------------------------|
|-----7--7-----7--7-----7-----7--7-----7--7-----7----|
|--0--------0--------0-----0--------0--------0-------|
|
|  S  S  S  S  S  S  S  S  S  S  S  S  S  S  S  S
|----------------------------------------------------|
|----------------------------------------------------|
|--4--4--4--4--4--4--4--4s=6--6--6--6--6--6--6--6s===|
|----------------------------------------------------|
|--2--2--2--2--2--2--2--2s=4--4--4--4--4--4--4--4s===|
|----------------------------------------------------|


  G#m
   S  S  S  S  S  S  S  S  S  S  S  S  S  S  S  S
|-------------------------------------------------|
|-------------------------------------------------|
|-16-16-16-16-16-16-16-16-18-18-18-18-18-18-18-18-|
|--x--x--x--x--x--x--x--x--x--x--x--x--x--x--x--x-|
|-14-14-14-14-14-14-14-14-16-16-16-16-16-16-16-16-|
|-------------------------------------------------|
|
|  S  S  S  S  S  S  S  S  S  S  S  S  S  S  S  S
|-------------------------------------------------|
|-----6--6-----6--6-----6-----6--6-----6--6-----6-|
|-------------------------------------------------|
|--4--------4--------4-----4--------4--------4----|
|
|  S  S  S  S  S  S  S  S  S  S  S  S  S  S  S  S
|-------------------------------------------------|
|-------------------------------------------------|
|--8--8--8--8--8--8--8--8--8--8--8--8--8--8--8--8-|
|-------------------------------------------------|
|--6--6--6--6--6--6--6--6--6--6--6--6--6--6--6--6-|
|-------------------------------------------------|


   S  S  S  S  S  S  S  S  S  S  S  S  S  S  S  S
|----------------------------------------------------|
|----------------------------------------------------|
|-19-19-19-19-19-19-19-19-20-20-20-20-20-20-20-20----|
|--x--x--x--x--x--x--x--x--x--x--x--x--x--x--x--x----|
|-17-17-17-17-17-17-17-17-18-18-18-18-18-18-18-18----|
|----------------------------------------------------|
|
|  S  S  S  S  S  S  S  S  S  S  S  S  S  S  S  S
|----------------------------------------------------|
|-----6--6-----6--6-----6-----6--6-----6--6-----6----|
|----------------------------------------------------|
|--4--------4--------4-----4--------4--------4-------|
|
|  S  S  S  S  S  S  S  S  S  S  S  S  S  S  S  S
|----------------------------------------------------|
|----------------------------------------------------|
|--8--8--8--8--8--8--8--8s=6--6--6--6s=8--8--8--8s===|
|----------------------------------------------------|
|--6--6--6--6--6--6--6--6s=4--4--4--4s=6--6--6--6s===|
|----------------------------------------------------|


  E
   S  S  S  S  S  S  S  S  S  S  S  S  S  S  S  S
|-------------------------------------------------|
|-17-17-17-17-17-17-17-17-18-18-18-18-18-18-18-18-|
|--x--x--x--x--x--x--x--x--x--x--x--x--x--x--x--x-|
|-14-14-14-14-14-14-14-14-15-15-15-15-15-15-15-15-|
|-------------------------------------------------|
|-------------------------------------------------|
|
|  S  S  S  S  S  S  S  S  S  S  S  S  S  S  S  S
|-------------------------------------------------|
|-------------------------------------------------|
|-----7--7-----7--7-----7-----7--7-----7--7-----7-|
|--0--------0--------0-----0--------0--------0----|
|
|  S  S  S  S  S  S  S  S  S  S  S  S  S  S  S  S
|-------------------------------------------------|
|-------------------------------------------------|
|--9--9--9--9--9--9--9--9s10-10-10-10-10-10-10-10s|
|-------------------------------------------------|
|--7--7--7--7--7--7--7--7s=8--8--8--8--8--8--8--8s|
|-------------------------------------------------|


                              TP    TP    TP TP TP
   S  S  S  S  S  S  S  S  S  S  S  S  S  S  S  S
|---------------------------------------------------|
|-19-19-19-19-19-19-19-19-20-20-20-20-20-20-20-20---|
|--x--x--x--x--x--x--x--x--x--x--x--x--x--x--x--x---|
|-16-16-16-16-16-16-16-16-17-17-17-17-17-17-17-17---|
|---------------------------------------------------|
|---------------------------------------------------|
|
|  S  S  S  S  S  S  S  S  S  S  S  S  S  S  S  S
|---------------------------------------------------|
|---------------------------------------------------|
|-----7--7-----7--7-----7-----7--7-----7--7-----7---|
|--0--------0--------0-----0--------0--------0------|
|
|  S  S  S  S  S  S  S  S  S  S  S  S  S  S  S  S
|---------------------------------------------------|
|---------------------------------------------------|
|-11-11-11-11-11-11-11-11s12-12-12-12-12-12-12-12---|
|---------------------------------------------------|
|--9--9--9--9--9--9--9--9s10-10-10-10-10-10-10-10---|
|---------------------------------------------------|


  B
   TP TP TP TP TP TP TP TP TP TP TP TP TP TP TP TP
   S  S  S  S  S  S  S  S  S  S  S  S  S  S  S  S
|-------------------------------------------------|
|-20-20-20-20-20-20-20-20-19-19-19-19-19-19-19-19-|
|-------------------------------------------------|
|-17-17-17-17-17-17-17-17-16-16-16-16-16-16-16-16-|
|-------------------------------------------------|
|-------------------------------------------------|
|
|  S  S  S  S  S  S  S  S  S  S  S  S  S  S  S  S
|-------------------------------------------------|
|-----9--9-----9--9-----9-----9--9-----9--9-----9-|
|-------------------------------------------------|
|--7--------7--------7-----7--------7--------7----|
|
|  S  S  S  S  S  S  S  S  S  S  S  S  S  S  S  S
|-------------------------------------------------|
|-------------------------------------------------|
|-12-12-12-12-12-12-12-12s11-11-11-11-11-11-11-11s|
|-------------------------------------------------|
|-10-10-10-10-10-10-10-10s=9--9--9--9--9--9--9--9s|
|-------------------------------------------------|


   TP TP TP TP TP TP TP TP TP TP TP TP TP TP TP TP
   S  S  S  S  S  S  S  S  S  S  S  S  S  S  S  S
|----------------------------------------------------|
|-17-17-17-17-17-17-17-17-16-16-16-16-16-16-16-16----|
|----------------------------------------------------|
|-14-14-14-14-14-14-14-14-13-13-13-13-13-13-13-13----|
|----------------------------------------------------|
|----------------------------------------------------|
|
|  S  S  S  S  S  S  S  S  S  S  S  S  S  S  S  S
|----------------------------------------------------|
|-----9--9-----9--9-----9-----9--9-----9--9-----9----|
|----------------------------------------------------|
|--7--------7--------7-----7--------7--------7-------|
|
|  S  S  S  S  S  S  S  S  S  S  S  S  S  S  S  S
|----------------------------------------------------|
|----------------------------------------------------|
|--9--9--9--9--9--9--9--9s=8--8--8--8--8--8--8--8s===|
|----------------------------------------------------|
|--7--7--7--7--7--7--7--7s=6--6--6--6--6--6--6--6s===|
|----------------------------------------------------|


  E
   TP TP TP TP TP TP TP TP TP TP TP TP TP TP TP TP
   S  S  S  S  S  S  S  S  S  S  S  S  S  S  S  S
|-------------------------------------------------|
|-20-20-20-20-20-20-20-20-21-21-21-21-21-21-21-21-|
|-------------------------------------------------|
|-17-17-17-17-17-17-17-17-18-18-18-18-18-18-18-18-|
|-------------------------------------------------|
|-------------------------------------------------|
|
|  S  S  S  S  S  S  S  S  S  S  S  S  S  S  S  S
|-------------------------------------------------|
|-------------------------------------------------|
|-----7--7-----7--7-----7-----7--7-----7--7-----7-|
|--0--------0--------0-----0--------0--------0----|
|
|  S  S  S  S  S  S  S  S  S  S  S  S  S  S  S  S
|-------------------------------------------------|
|-------------------------------------------------|
|-12-12-12-12-12-12-12-12s13-13-13-13-13-13-13-13s|
|-------------------------------------------------|
|-10-10-10-10-10-10-10-10s11-11-11-11-11-11-11-11s|
|-------------------------------------------------|


   TP TP TP TP TP TP TP TP TP TP TP TP TP TP TP TP
   S  S  S  S  S  S  S  S  S  S  S  S  S  S  S  S
|-17-17-17-17-17-17-17-17-18-18-18-18-18-18-18-18----|
|----------------------------------------------------|
|-14-14-14-14-14-14-14-14-15-15-15-15-15-15-15-15----|
|----------------------------------------------------|
|----------------------------------------------------|
|----------------------------------------------------|
|
|  S  S  S  S  S  S  S  S  S  S  S  S  S  S  S  S
|----------------------------------------------------|
|----------------------------------------------------|
|-----7--7-----7--7-----7-----7--7-----7--7-----7----|
|--0--------0--------0-----0--------0--------0-------|
|
|  S  S  S  S  S  S  S  S  S  S  S  S  S  S  S  S
|----------------------------------------------------|
|----------------------------------------------------|
|-14-14-14-14-14-14-14-14s15-15-15-15-15-15-15-15s===|
|----------------------------------------------------|
|-12-12-12-12-12-12-12-12s13-13-13-13-13-13-13-13s===|
|----------------------------------------------------|


  G#m
   TP TP TP TP TP TP TP TP TP TP TP TP TP TP TP TP
   S  S  S  S  S  S  S  S  S  S  S  S  S  S  S  S
|-19-19-19-19-19-19-19-19-18-18-18-18-18-18-18-18-|
|-------------------------------------------------|
|-16-16-16-16-16-16-16-16-15-15-15-15-15-15-15-15-|
|-------------------------------------------------|
|-------------------------------------------------|
|-------------------------------------------------|
|
|  S  S  S  S  S  S  S  S  S  S  S  S  S  S  S  S
|-------------------------------------------------|
|-----6--6-----6--6-----6-----6--6-----6--6-----6-|
|-------------------------------------------------|
|--4--------4--------4-----4--------4--------4----|
|
|  S  S  S  S  S  S  S  S  S  S  S  S  S  S  S  S
|-------------------------------------------------|
|-------------------------------------------------|
|-16-16-16-16-16-16-16-16s15-15-15-15-15-15-15-15s|
|-------------------------------------------------|
|-14-14-14-14-14-14-14-14s13-13-13-13-13-13-13-13s|
|-------------------------------------------------|


   TP TP TP TP TP TP TP TP TP TP TP TP TP TP TP TP
   S  S  S  S  S  S  S  S  S  S  S  S  S  S  S  S
|-16-16-16-16-16-16-16-16-------------14-14-14-14---|
|-------------------------16-16-16-16---------------|
|-13-13-13-13-13-13-13-13-------------11-11-11-11---|
|-------------------------13-13-13-13---------------|
|---------------------------------------------------|
|---------------------------------------------------|
|
|  S  S  S  S  S  S  S  S  S  S  S  S  S  S  S  S
|---------------------------------------------------|
|-----6--6-----6--6-----6-----6--6-----6--6-----6---|
|---------------------------------------------------|
|--4--------4--------4-----4--------4--------4------|
|
|  S  S  S  S  S  S  S  S  S  S  S  S  S  S  S  S
|---------------------------------------------------|
|---------------------------------------------------|
|-13-13-13-13-13-13-13-13s=8--8--8--8s11-11-11-11---|
|---------------------------------------------------|
|-11-11-11-11-11-11-11-11s=6--6--6--6s=9--9--9--9---|
|---------------------------------------------------|


  E
   TP TP TP TP TP TP TP TP TP TP TP TP TP TP TP TP
   S  S  S  S  S  S  S  S  S  S  S  S  S  S  S  S
|-14-14-14-14-14-14-14-14-14-14-14-14-14-14-14-14-|
|-------------------------------------------------|
|-11-11-11-11-11-11-11-11-11-11-11-11-11-11-11-11-|
|-------------------------------------------------|
|-------------------------------------------------|
|-------------------------------------------------|
|
|  S  S  S  S  S  S  S  S  S  S  S  S  S  S  S  S
|-------------------------------------------------|
|-------------------------------------------------|
|-----7--7-----7--7-----7-----7--7-----7--7-----7-|
|--0--------0--------0-----0--------0--------0----|
|
|  S  S  S  S  S  S  S  S  S  S  S  S  S  S  S  S
|-------------------------------------------------|
|-------------------------------------------------|
|-11-11-11-11-11-11-11-11-11-11-11-11-11-11-11-11s|
|-------------------------------------------------|
|--9--9--9--9--9--9--9--9--9--9--9--9--9--9--9--9s|
|-------------------------------------------------|


                                       To Coda
   TP       TP TP TP    TP TP       TP    TP
   S  S  S  S  S  S  S  S  S  S  S  S  S  S S
|-12-12-12-12-12-12-12-12-12-12-12-12-12-12-x-----|
|--x--x--x--x--x--x--x--x--x--x--x--x--x--x-x-----|
|--9--9--9--9--9--9--9--9--9--9--9--9--9--9-x-----|
|-------------------------------------------------|
|-------------------------------------------------|
|-------------------------------------------------|
|
|  S  S  S  S  S  S  S  S  S  S  S  S  S  S S S
|-------------------------------------------------|
|-------------------------------------------------|
|-----7--7-----7--7-----7-----7--7-----7--7---7---|
|--0--------0--------0-----0--------0-------0-----|
|
|  S  S  S  S  S  S  S  S  S  S  S  S  S  S S S
|-------------------------------------------------|
|-------------------------------------------------|
|--9--9--9--9--9--9--9--9--9--9--9--9--9--9-9-9---|
|-------------------------------------------------|
|--7--7--7--7--7--7--7--7--7--7--7--7--7--7-7-7---|
|-------------------------------------------------|


  E
  Gtr III
   S  S  E    S  E    S  E     S S  E    E
|--------------------------------------------|
|--------------------------------------------|
|--------------------------------------------|
|--------------------------------------------|
|--------------------------------------------|
|-12-12-12---12-12---12--0----12-0-12---12S==|
|
| Gtr IV
|  S  S  S S  S  S S  S  S  S  S S  S S  S S
|--------------------------------------------|
|--------------------------------------------|
|--------------------------------------------|
|--9--x--x-8--x--x-9--x--x-11--x-x--9-x--8-x-|
|--7--7--7-7--7--7-7--7--7--7--7-7--7-7--7-7-|
|--------------------------------------------|
|
| Gtr II
|  H                  Q.            E
|--------------------------------------------|
|--------------------------------------------|
|--------------------------------------------|
|--0-----------------12------------12S=======|


  Q     Q     S S S  E   E     S
|------------------------0-----------|
|-------------0----------0-----------|
|-------------1---1------1-----------|
|-2-----2-----2-2-2--2---2-----2-----|
|-2-----2-----2-2-2--2---2-----2-----|
|-0-----0-----0-0-0--0---0-----0-----|
|
| S S S S S S S S S  S S S S S S S
|------------------------------------|
|------------------------------------|
|------------------------------------|
|-9-x-x-8-x-x-9-x-x-11-x-x-9-x-8-x---|
|-7-7-7-7-7-7-7-7-7--7-7-7-7-7-7-7---|
|------------------------------------|
|
| W
|------------------------------------|
|------------------------------------|
|------------------------------------|
|-0----------------------------------|


  E   S E   S S E    E   S S E   S   E   S S S S S Q        S S E   S
|---------------4----4---4-------4-|-4-------4-4-4-4----------4---------|
|---------------4----4---4---4---4-|-4-------4-4-4-4----------4-4-------|
|-------------4-4----4---4-4-4---4-|-4---4---4-4-4-4--------4-4-4-------|
|-6-----------6-6----6---6-6-6---6-|-6---6-6-6-6-6-6--------6-6-6---6---|
|-6---6-6---6-6-6----6---6-6-6---6-|-6---6-6-6-6-6-6--------6-6-6---6---|
|-4---4-4---4-4-4----4---4-4-4---4-|-4---4-4-4-4-4-4--------4-4-4---4---|
|
| S S S S S S S S S  S S S S S S S   S S S S S S S S S  S S S S S S S
|----------------------------------|------------------------------------|
|----------------------------------|------------------------------------|
|----------------------------------|------------------------------------|
|-9-x-x-8-x-x-9-x-x-11-x-x-9-x-8-x-|-9-x-x-8-x-x-9-x-x-11-x-x-9-x-8-x---|
|-6-6-6-6-6-6-6-6-6--6-6-6-6-6-6-6-|-6-6-6-6-6-6-6-6-6--6-6-6-6-6-6-6---|
|----------------------------------|------------------------------------|
|
| W                                  W
|----------------------------------|------------------------------------|
|----------------------------------|------------------------------------|
|----------------------------------|------------------------------------|
|-4--------------------------------|-4----------------------------------|


   S  S  E    S  E    S  E     S S  E    E
|--------------------------------------------|
|--------------------------------------------|
|--------------------------------------------|
|--------------------------------------------|
|--------------------------------------------|
|-12-12-12---12-12---12--0----12-0-12---12S==|
|
|  S  S  S S  S  S S  S  S  S  S S  S S  S S
|--------------------------------------------|
|--------------------------------------------|
|--9--9--9-9--9--9-9--9--9--9--9-9--9-9--9-9s|
|--------------------------------------------|
|--7--7--7-7--7--7-7--7--7--7--7-7--7-7--7-7s|
|--------------------------------------------|
|
|  H                     Q.              E
|--------------------------------------------|
|--------------------------------------------|
|--------------------------------------------|
|--0--------------------12--------------12S==|


  Q       Q       S S S E   E   S
|---------------------------0--------|
|-----------------0---------0--------|
|-----------------1---1-----1--------|
|-2-------2-------2-2-2-2---2---2----|
|-2-------2-------2-2-2-2---2---2----|
|-0-------0-------0-0-0-0---0---0----|
|
| S S S S S S S S S S S S S S S S
|------------------------------------|
|------------------------------------|
|-8-8-8-8-8-8-8-8-8-8-8-8s6-6-6-6s===|
|------------------------------------|
|-6-6-6-6-6-6-6-6-6-6-6-6s4-4-4-4s===|
|------------------------------------|
|
| W
|------------------------------------|
|------------------------------------|
|------------------------------------|
|-0----------------------------------|


  E   S E   S S E   E   S S E   S   E   S S S S S Q       S S E   S
|---------------4---4---4-------4-|-4-------4-4-4-4---------4---------|
|---------------4---4---4---4---4-|-4-------4-4-4-4---------4-4-------|
|-------------4-4---4---4-4-4---4-|-4---4---4-4-4-4-------4-4-4-------|
|-6-----------6-6---6---6-6-6---6-|-6---6-6-6-6-6-6-------6-6-6---6---|
|-6---6-6---6-6-6---6---6-6-6---6-|-6---6-6-6-6-6-6-------6-6-6---6---|
|-4---4-4---4-4-4---4---4-4-4---4-|-4---4-4-4-4-4-4-------4-4-4---4---|
|
| S S S S S S S S S S S S S S S S   S S S S S S S S S S S S S S S S
|---------------------------------|-----------------------------------|
|---------------------------------|-----------------------------------|
|-8-8-8-8-8-8-8-8-8-8-8-8-8-8-8-8-|-8-8-8-8-8-8-8-8s6-6-6-6-6-6-6-6---|
|---------------------------------|-----------------------------------|
|-6-6-6-6-6-6-6-6-6-6-6-6-6-6-6-6-|-6-6-6-6-6-6-6-6s4-4-4-4-4-4-4-4---|
|---------------------------------|-----------------------------------|
|
| W                                 W
|---------------------------------|-----------------------------------|
|---------------------------------|-6---------------------------------|
|---------------------------------|-----------------------------------|
|-4-------------------------------|-----------------------------------|


  Gtr VI
  T     T     T      T     T   T     T     T     T      T     T   T
  S S S S S S S S S  S S S S S S S   S S S S S S S S S  S S S S S S S
|----------------------------------|-------------------------------------|
|----------------------------------|-------------------------------------|
|----------------------------------|-------------------------------------|
|-9-x-x-8-x-x-9-x-x-11-x-x-9-x-8-x-|-9-x-x-8-x-x-9-x-x-11-x-x-9-x-8-x----|
|-7-7-7-7-7-7-7-7-7--7-7-7-7-7-7-7-|-7-7-7-7-7-7-7-7-7--7-7-7-7-7-7-7----|
|----------------------------------|-------------------------------------|
|
| Gtr II
| S S S S S S S S S  S S S S S S S   S S S S S S S S S  S S S S S S S
|----------------------------------|-------------------------------------|
|----------------------------------|-------------------------------------|
|-7-7-7-7-7-7-7-7-7--7-7-7-7-7-7-7-|-7-7-7-7-7-7-7-7-7--7-7-7-7-7-7-7----|
|----------------------------------|-------------------------------------|
|
| Gtr V
| S S S S S S S S S  S S S S S S S   S S S S S S S S S  S S S S S S S
|----------------------------------|-------------------------------------|
|----------------------------------|-------------------------------------|
|-6-6-6-6-6-6-6-6-6--6-6-6-6-6-6-6-|-6-6-6-6-6-6-6-6-6--6-6-6s4-4-4-4s===|
|----------------------------------|-------------------------------------|
|-4-4-4-4-4-4-4-4-4--4-4-4-4-4-4-4-|-4-4-4-4-4-4-4-4-4--4-4-4s2-2-2-2s===|
|----------------------------------|-------------------------------------|


  T     T     T      T     T   T     T     T     T      T     T   T
  S S S S S S S S S  S S S S S S S   S S S S S S S S S  S S S S S S S
|----------------------------------|-------------------------------------|
|----------------------------------|-------------------------------------|
|----------------------------------|-------------------------------------|
|-9-x-x-8-x-x-9-x-x-11-x-x-9-x-8-x-|-9-x-x-8-x-x-9-x-x-11-x-x-9-x-8-x----|
|-7-7-7-7-7-7-7-7-7--7-7-7-7-7-7-7-|-7-7-7-7-7-7-7-7-7--7-7-7-7-7-7-7----|
|----------------------------------|-------------------------------------|
|
| S S S S S S S S S  S S S S S S S   S S S S S S S S S  S S S S S S S
|----------------------------------|-------------------------------------|
|----------------------------------|-------------------------------------|
|----------------------------------|-------------------------------------|
|-4-4-4-4-4-4-4-4-4--4-4-4-4-4-4-4-|-4-4-4-4-4-4-4-4-4--4-4-4-4-4-4-4----|
|
| S S S S S S S S S  S S S S S S S   S S S S S S S S S  S S S S S S S
|----------------------------------|-------------------------------------|
|----------------------------------|-------------------------------------|
|-6-6-6-6-6-6-4-4s6--6-6-6s4-4-4-4-|-4-4-4-4-4-4-4-4-4--4-4-4s3-3-3-3s===|
|----------------------------------|-------------------------------------|
|-4-4-4-4-4-4-2-2s4--4-4-4s2-2-2-2-|-2-2-2-2-2-2-2-2-2--2-2-2s1-1-1-1s===|
|----------------------------------|-------------------------------------|


  T     T     T      T     T   T     T     T     T      T     T   T
  S S S S S S S S S  S S S S S S S   S S S S S S S S S  S S S S S S S
|----------------------------------|------------------------------------|
|----------------------------------|------------------------------------|
|----------------------------------|------------------------------------|
|-9-x-x-8-x-x-9-x-x-11-x-x-9-x-8-x-|-9-x-x-8-x-x-9-x-x-11-x-x-9-x-8-x---|
|-7-7-7-7-7-7-7-7-7--7-7-7-7-7-7-7-|-7-7-7-7-7-7-7-7-7--7-7-7-7-7-7-7---|
|----------------------------------|------------------------------------|
|
| S S S S S S S S S  S S S S S S S   S S S S S S S S S  S S S S S S S
|----------------------------------|------------------------------------|
|----------------------------------|------------------------------------|
|-7-7-7-7-7-7-7-7-7--7-7-7-7-7-7-7-|-7-7-7-7-7-7-7-7-7--7-7-7-7-7-7-7---|
|----------------------------------|------------------------------------|
|
| S S S S S S S S S  S S S S S S S   S S S S S S S S S  S S S S S S S
|----------------------------------|------------------------------------|
|----------------------------------|------------------------------------|
|-4-4-4-4-4-4-4-4-4--4-4-4-4-4-4-4-|-4-4-4-4-4-4-4-4s3--3-3-3-3-3s4-4---|
|----------------------------------|------------------------------------|
|-2-2-2-2-2-2-2-2-2--2-2-2-2-2-2-2-|-2-2-2-2-2-2-2-2s1--1-1-1-1-1s2-2---|
|----------------------------------|------------------------------------|


                                                                D.S.
  T     T     T      T     T   T     T     T     T      T     T   T
  S S S S S S S S S  S S S S S S S   S S S S S S S S S  S S S S S S S
|----------------------------------|------------------------------------|
|----------------------------------|------------------------------------|
|----------------------------------|------------------------------------|
|-9-x-x-8-x-x-9-x-x-11-x-x-9-x-8-x-|-9-x-x-8-x-x-9-x-x-11-x-x-9-x-8-x---|
|-7-7-7-7-7-7-7-7-7--7-7-7-7-7-7-7-|-7-7-7-7-7-7-7-7-7--7-7-7-7-7-7-x---|
|----------------------------------|------------------------------------|
|
| S S S S S S S S S  S S S S S S S   S S S S S S S S S  S S S S S S S
|----------------------------------|------------------------------------|
|----------------------------------|------------------------------------|
|-9-9-9-9-9-9-9-9-9--9-9-9-9-9-9-9-|-9-9-9-9-9-9-9-9-9--9-9-9-9-9-9S2---|
|----------------------------------|------------------------------------|
|
| S S S S S S S S S  S S S S S S S   S S S S S S S H
|----------------------------------|------------------------------------|
|----------------------------------|------------------------------------|
|-4-4-4-4s6-6-6-6-6--6-6-6-6-6-6-6-|-6-6-6-6-6-6-6-x--------------------|
|----------------------------------|------------------------------------|
|-2-2-2-2s4-4-4-4-4--4-4-4-4-4-4-4-|-4-4-4-4-4-4-4-x--------------------|
|----------------------------------|------------------------------------|


  &
  Gtr I
  Q   Q   Q       E           S    S
|--------------------------------------|
|--------------------------------------|
|--------------------------------------|
|-9---8---9-------9b11r======(9)---8---|
|--------------------------------------|
|--------------------------------------|
|
| Gtr II
| S S S S S S S S S    S S S  S  S S S
|--------------------------------------|
|--------------------------------------|
|--------------------------------------|
|-7-7-7-7-7-7-7-7-7----7-7-7--7--7-7-7-|
|
| Gtr IV
| S S S S S S S S S    S S S  S  S S S
|--------------------------------------|
|--------------------------------------|
|-8-8-8-8-8-8-8-8-8----8-8-8--8--8-8-8-|
|-9-9-9-9-9-9-9-9-9----9-9-9--9--9-9-9-|
|-9-9-9-9-9-9-9-9-9----9-9-9--9--9-9-9-|
|-7-7-7-7-7-7-7-7-7----7-7-7--7--7-7-7-|


  Q   Q   Q       E           S    S
|----------------------------------------|
|----------------------------------------|
|----------------------------------------|
|-9---8---9-------9b11r======(9)---8-----|
|----------------------------------------|
|----------------------------------------|
|
| S S S S S S S S S    S S S  S  S S S
|----------------------------------------|
|----------------------------------------|
|----------------------------------------|
|-7-7-7-7-7-7-7-7-7----7-7-7--7--7-7-7---|
|
| S S S S S S S S S    S S S  S  S S S
|----------------------------------------|
|----------------------------------------|
|-8-8-8-8-8-8-8-8-8----8-8-8--8--8-8-8---|
|-9-9-9-9-9-9-9-9-9----9-9-9--9--9-9-9---|
|-9-9-9-9-9-9-9-9-9----9-9-9--9--9-9-9---|
|-7-7-7-7-7-7-7-7-7----7-7-7--7--7-7-7---|


   Q       Q        Q        E        S  S
|------------------------------------------|
|------------------------------------------|
|------------------------------------------|
|-11-------9-------11-------11b13r==(11)-9-|
|------------------------------------------|
|------------------------------------------|
|
|  S S S S S S S S  S S S S  S    S   S  S
|------------------------------------------|
|------------------------------------------|
|------------------------------------------|
|--9-9-9-9-9-9-9-9--9-9-9-9--9----9---9--9-|
|
|  S S S S S S S S  S S S S  S    S   S  S
|------------------------------------------|
|--5-5-5-5-5-5-5-5--5-5-5-5--5----5---5--5-|
|--6-6-6-6-6-6-6-6--6-6-6-6--6----6---6--6-|
|--6-6-6-6-6-6-6-6--6-6-6-6--6----6---6--6-|
|--4-4-4-4-4-4-4-4--4-4-4-4--4----4---4--4-|
|------------------------------------------|


   Q       Q        Q        E        S  S
|--------------------------------------------|
|--------------------------------------------|
|--------------------------------------------|
|-11-------9-------11-------11b13r==(11)-9---|
|--------------------------------------------|
|--------------------------------------------|
|
|  S S S S S S S S  S S S S  S    S   S  S
|--------------------------------------------|
|--------------------------------------------|
|--------------------------------------------|
|--9-9-9-9-9-9-9-9--9-9-9-9--9----9---9--9---|
|
|  S S S S S S S S  S S S S  S    S   S  S
|--------------------------------------------|
|--5-5-5-5-5-5-5-5--5-5-5-5--5----5---5--5---|
|--6-6-6-6-6-6-6-6--6-6-6-6--6----6---6--6---|
|--6-6-6-6-6-6-6-6--6-6-6-6--6----6---6--6---|
|--4-4-4-4-4-4-4-4--4-4-4-4--4----4---4--4---|
|--------------------------------------------|


                         ~~
   Q    Q    E      E    Q
|--------------------------------------|
|--------------------------------------|
|--------------------------------------|
|-13---14---13-----11------------------|
|-----------------------14-------------|
|--------------------------------------|
|
|  S S  S S  S S S  S S  S S S S S S S
|--------------------------------------|
|--------------------------------------|
|--------------------------------------|
|--4-4--4-4--4-4-4--4-4--4-4-4-4-4-4-4-|
|
|  S S  S S  S S S  S S  S S S S S S S
|--------------------------------------|
|--------------------------------------|
|--4-4--4-4--4-4-4--4-4--4-4-4-4-4-4-4-|
|--6-6--6-6--6-6-6--6-6--6-6-6-6-6-6-6-|
|--6-6--6-6--6-6-6--6-6--6-6-6-6-6-6-6-|
|--4-4--4-4--4-4-4--4-4--4-4-4-4-4-4-4-|


   Q            Q       E      E      E    E
|----------------------------------------------|
|----------------------------------------------|
|----------------------------------------------|
|-13b14r======(13)-----13-----11-----11--------|
|-----------------------------------------14---|
|----------------------------------------------|
|
|  S    S S S   S  S S  S S S  S S S  S S  S
|----------------------------------------------|
|----------------------------------------------|
|----------------------------------------------|
|--4----4-4-4---4--4-4--4-4-4--4-4-4--4-4--4---|
|
|  S    S S S   S  S S  S S S  S S S  S S  S
|----------------------------------------------|
|----------------------------------------------|
|--4----4-4-4---4--4-4--4-4-4--4-4-4--4-4--4---|
|--6----6-6-6---6--6-6--6-6-6--6-6-6--6-6--6---|
|--6----6-6-6---6--6-6--6-6-6--6-6-6--6-6--6---|
|--4----4-4-4---4--4-4--4-4-4--4-4-4--4-4--4---|


  E      E      E      E   E      E   E      E
|------------------------------------------------|
|------------------------------------------------|
|-9b11r==9b11r==9b11r==9---9b10r==9---9b10r==9---|
|------------------------------------------------|
|------------------------------------------------|
|------------------------------------------------|
|
| S    S S    S S    S S S S    S S S S    S S S
|------------------------------------------------|
|------------------------------------------------|
|-7----7-7----7-7----7-7-7-7----7-7-7-7----7-7-7-|
|------------------------------------------------|
|
| S    S S    S S    S S S S    S S S S    S S S
|------------------------------------------------|
|------------------------------------------------|
|-9----9-9----9-9----9-9-9-9----9-9-9-9----9-9-9-|
|-9----9-9----9-9----9-9-9-9----9-9-9-9----9-9-9-|
|-7----7-7----7-7----7-7-7-7----7-7-7-7----7-7-7-|
|------------------------------------------------|


  E      E   E   E      E   E   E      E
|--------------------------------------------|
|----------------7--------------7------------|
|-9b11r==9---9---9b10r==9---9---9b11r==9-----|
|--------------------------------------------|
|--------------------------------------------|
|--------------------------------------------|
|
| S    S S S S S S    S S S S S S    S S S
|--------------------------------------------|
|--------------------------------------------|
|-7----7-7-7-7-7-7----7-7-7-7-7-7----7-7-7---|
|--------------------------------------------|
|
| S    S S S S S S    S S S S S S    S S S
|--------------------------------------------|
|--------------------------------------------|
|-9----9-9-9-9-9-9----9-9-9-9-9-9----9-9-9---|
|-9----9-9-9-9-9-9----9-9-9-9-9-9----9-9-9---|
|-7----7-7-7-7-7-7----7-7-7-7-7-7----7-7-7---|
|--------------------------------------------|


   ~~~~~~
   Q           E       E    E       E    E       E
|----------------------------------------------------|
|--9-----------9-------9----9-------9----9-------9---|
|-11b12r======11b13r==11---11b13r==11---11b13r==11---|
|----------------------------------------------------|
|----------------------------------------------------|
|----------------------------------------------------|
|
|  S    S S S  S    S  S S  S    S  S S  S    S  S S
|----------------------------------------------------|
|----------------------------------------------------|
|--9----9-9-9--9----9--9-9--9----9--9-9--9----9--9-9-|
|----------------------------------------------------|
|
|  S    S S S  S    S  S S  S    S  S S  S    S  S S
|----------------------------------------------------|
|----------------------------------------------------|
|--3----3-3-3--3----3--3-3--3----3--3-3--3----3--3-3-|
|--4----4-4-4--4----4--4-4--4----4--4-4--4----4--4-4-|
|--4----4-4-4--4----4--4-4--4----4--4-4--4----4--4-4-|
|--2----2-2-2--2----2--2-2--2----2--2-2--2----2--2-2-|


   ~~~~~~
   E       E       E       E       E       E    E       E
|-------------------------------------------------------------|
|-11------11------11------11------11------11---11------11-----|
|-13b15r==13b15r==13b15r==13b15r==13b15r==13---13b15r==13-----|
|-------------------------------------------------------------|
|-------------------------------------------------------------|
|-------------------------------------------------------------|
|
|  S    S  S    S  S    S  S    S  S    S  S S  S    S  S S
|-------------------------------------------------------------|
|-------------------------------------------------------------|
|--9----9--9----9--9----9--9----9--9----9--9-9--9----9--9-9---|
|-------------------------------------------------------------|
|
|  S    S  S    S  S    S  S    S  S    S  S S  S    S  S S
|-------------------------------------------------------------|
|-------------------------------------------------------------|
|--3----3--3----3--3----3--3----3--3----3--3-3--3----3--3-3---|
|--4----4--4----4--4----4--4----4--4----4--4-4--4----4--4-4---|
|--4----4--4----4--4----4--4----4--4----4--4-4--4----4--4-4---|
|--2----2--2----2--2----2--2----2--2----2--2-2--2----2--2-2---|


  W                              W
|------------------|------------------*|
|------------------|------------------*|
|------------------|------------------*|
|-9----------------|------------------*|
|-9----------------|------------------*|
|-7----------------|------------------*|
|
| W                           W
|------------------|------------------*|
|------------------|------------------*|
|------------------|------------------*|
|-7----------------|------------------*|


Duration Legend
---------------
W - whole; H - half; Q - quarter; E - 8th; S - 16th; T - 32nd; X - 64th; a - acciaccatura
+ - note tied to previous; . - note dotted; .. - note double dotted
Uncapitalized letters represent notes that are staccato (1/2 duration)
Irregular groupings are notated above the duration line
Duration letters will always appear directly above the note/fret number it represents the
duration for.  Duration letters with no fret number below them represent rests.  Multi-
bar rests are notated in the form Wxn, where n is the number of bars to rest for.  Low
melody durations appear below the staff

Tablature Legend
----------------
 h   - hammer-on
 p   - pull-off
 b   - bend
 pb  - pre-bend
 r   - bend release (if no number after the r, then release immediately)
 /\  - slide into or out of (from/to "nowhere")
 s   - legato slide
 S   - shift slide
  - natural harmonic
[n]  - artificial harmonic
n(n) - tapped harmonic
 ~   - vibrato
 tr  - trill
 T   - tap
 TP  - trem. picking
 PM  - palm muting
\n/  - tremolo bar dip; n = amount to dip
 \n  - tremolo bar down
 n/  - tremolo bar up
/n\  - tremolo bar inverted dip
 =   - hold bend; also acts as connecting device for hammers/pulls
 <>  - volume swell (louder/softer)
 x   - on rhythm slash represents muted slash
 o   - on rhythm slash represents single note slash


***************************************************************************************
comments
We did not receive enough feedback on this tab! Please rate:
print report bad tab
1 2 3 4 5
1 comment total.
0 reply
Moss wrote on February 8 2005, 12:00 am

Can i say you beat that other guys tab into the ground. Spot on with the main riff, I like the way you tab! (correctly)

I want to post or [tab]
guest
You may want to rate the tab now too:
select rating
Please do not post tabs as comments. Select "correction" instead!