Oops, an error
Loading. Please wait.

Explorers Bass Tab

by Muse
ver2
ver2

Whole song

Interactive

More versions @911Tabs.com
2,628 views 21 this week
1 commentread comment
1 2 3 4 5
accurate
x 3
Autoscroll
+/-
esc
set tempo
stop
Contributor
Difficulty
intermediate
Hey! There's an official Ultimate Guitar app which is ideal
for learning songs when you're away from computer. Get the app
WARNING: You are trying to view
                                    content from Ultimate-Guitar.com
                                    in an unauthorized application,
                                    which is prohibited.

                                    Please use an official Ultimate
                                    Guitar Tabs application for iPhone,
                                    iPad or Android to access legitimate
                                    chords, guitar, bass, and drum tabs
                                    from Ultimate-Guitar.com database.

                                    Type "ultimate guitar tabs" in Apple
                                    App Store's or Android Market's
                                    search to find the application.
                                  Explorers                                     


                                                                            Muse
Track 2



G||-------|-------|-------|-------|-------|-------|-------|-------|-------|
D||-------|-------|-------|-------|-------|-------|-------|-------|-------|
A||-------|-------|-------|-------|-------|-------|-------|-------|-------|
E||-------|-------|-------|-------|-------|-------|-------|-------|-------|


                                                           W                 
-------|-------|-------|-------|-------|-------|-------|--------------------|
-------|-------|-------|-------|-------|-------|-------|--10----------------|
-------|-------|-------|-------|-------|-------|-------|--------------------|
-------|-------|-------|-------|-------|-------|-------|--------------------|


  H         E   E   E   E     W                    H        E   Q     E   
-------------------12--14--|--L----------------|--21--------L--17--------|
--L--------12--14----------|-------------------|---------------------18--|
---------------------------|-------------------|-------------------------|
---------------------------|-------------------|-------------------------|


  W                    Q       E      Q      Q     E   
-------------------|--21S----(22)S--(21)----17--------|
--L----------------|------------------------------16--|
-------------------|----------------------------------|
-------------------|----------------------------------|


  H        E   E   E   E     H.            Q        W                 
--------------------------|---------------------|--------------------|
--L--------L--12--14--15--|--L------------14----|--10----------------|
-----------L--------------|---------------------|--------------------|
--------------------------|---------------------|--------------------|


   H        E   E   E   E     W                   W                 
---------------------------|-------------------|-------------------|
--13--------L------10--12--|--L----------------|--L----------------|
---------------10----------|-------------------|-------------------|
---------------------------|-------------------|-------------------|


  E  E  E  E  E  E  E  E     E  E  E  E  E  E  E  E   
--------------------------|--------------------------|
--------------------------|--------------------------|
--------------------------|--------------------------|
--8--8--8--8--8--8--8--8--|--8--8--8--8--8--8--8--8--|


  E  E  E  E  E  E  E  E     E  E  E  E  E  E  E  E   
--------------------------|--------------------------|
--------------------------|--------------------------|
--------------------------|--------------------------|
--8--8--8--8--8--8--8--8--|--8--8--8--8--8--8--8--8--|


  E  E  E  E  E  E  E  E     E  E  E  E  E  E  E  E    
--------------------------|---------------------------|
--------------------------|---------------------------|
--------------------------|---------------------------|
--8--8--8--8--8--8--8--8--|--5--5--5--5--5--5--5--5S--|


   E   E   E   E   E   E   E   E      E   E   E   E   E   E   E   E   
----------------------------------|----------------------------------|
----------------------------------|----------------------------------|
----------------------------------|----------------------------------|
--12--12--12--12--12--12--12--12--|--13--13--13--13--13--13--13--13--|


   E   E   E   E   E   E   E   E      E  E  E  E  E  E  E  E   
-----------------------------------|--------------------------|
-----------------------------------|--------------------------|
-----------------------------------|--------------------------|
--10--10--10--10--10--10--10--10S--|--3--3--3--3--3--3--3--3--|


  E  E  E  E  E  E  E  E     E  E  E  E  E  E  E  E   
--------------------------|--------------------------|
--------------------------|--------------------------|
--------------------------|--------------------------|
--4--4--4--4--4--4--4--4--|--5--5--5--5--5--5--5--5--|


  E  E  E  E  E  E  E  E     E  E  E  E  E  E  E  E   
--------------------------|--------------------------|
--------------------------|--------------------------|
--------------------------|--------------------------|
--5--5--5--5--5--5--5--5--|--7--7--7--7--7--7--7--7--|


  H        E    E   E   E      H        E   E   E   E     W                 
-----------------------17--|---L--------L----------19--|--L----------------|
--------------/15--17------|---------------16--19------|-------------------|
---------------------------|---------------------------|-------------------|
--8--------L---------------|---------------------------|-------------------|


   S S  E   S S  E   S S  E   S S  E     H        S S Q.      
--16---13-----------------------------|----------------------|
-----------15---12--------------------|----------------------|
--------------------14---11-----------|----------------------|
-----------------------------13---10--|--8--------8---8------|


  H        S S Q.        H        S S Q.        H        S S Q.      
----------------------|----------------------|----------------------|
----------------------|----------------------|----------------------|
----------------------|----------------------|--8--------8---8------|
--8--------8---8------|--8--------8---8------|----------------------|


   H         S S  Q.        H        S S Q.         H         S S  Q.      
-------------------------|----------------------|-------------------------|
-------------------------|----------------------|-------------------------|
--11--------11---11------|----------------------|-------------------------|
-------------------------|--8--------8---8------|--10--------10---10------|


  H        S S Q.        H        S S Q.         H         S S  Q.      
----------------------|----------------------|-------------------------|
----------------------|----------------------|-------------------------|
--8--------8---8------|----------------------|-------------------------|
----------------------|--8--------8---8------|--11--------11---11------|


  H        S S Q.        H         S S  Q.        E  E  E  E  E  E  E  E   
----------------------|------------------------|--------------------------|
----------------------|------------------------|--------------------------|
--8--------8---8------|--8--------10---10------|--------------------------|
----------------------|------------------------|--8--8--8--8--8--8--8--8--|


  E  E  E  E  E  E  E  E     E  E  E  E  E  E  E  E   
--------------------------|--------------------------|
--------------------------|--------------------------|
--------------------------|--------------------------|
--8--8--8--8--8--8--8--8--|--8--8--8--8--8--8--8--8--|


  E  E  E  E  E  E  E  E      E   E   E   E   E   E   E   E   
--------------------------|----------------------------------|
--------------------------|----------------------------------|
--8--8--8--8--8--8--8--8--|--11--11--11--11--11--11--11--11--|
--------------------------|----------------------------------|


  E  E  E  E  E  E  E  E      E   E   E   E   E   E   E   E   
--------------------------|----------------------------------|
--------------------------|----------------------------------|
--------------------------|----------------------------------|
--8--8--8--8--8--8--8--8--|--10--10--10--10--10--10--10--10--|


  E  E  E  E  E  E  E  E     E  E  E  E  E  E  E  E   
--------------------------|--------------------------|
--------------------------|--------------------------|
--8--8--8--8--8--8--8--8--|--------------------------|
--------------------------|--8--8--8--8--8--8--8--8--|


   E   E   E   E   E   E   E   E     E  E  E  E  E  E  E  E   
----------------------------------|--------------------------|
----------------------------------|--------------------------|
----------------------------------|--8--8--8--8--8--8--8--8--|
--11--11--11--11--11--11--11--11--|--------------------------|


  E  E  E  E   E   E   E   E     Q    E.  S S S Q    E   
------------------------------|-------------------------|
------------------------------|-------------------------|
--8--8--8--8--10--10--10--10--|--3----3-----3---3----3--|
------------------------------|-----------3-------------|


  Q    E.  S  S S Q    E     Q    E.  S S S Q    E     Q    E.  S S S Q    E   
--------------------------|-------------------------|-------------------------|
--------------------------|-------------------------|-------------------------|
--------------------------|--7----7-----7---7-------|--8----8-----8---8-------|
--5----5---0h-5---5----0--|-----------7----------7--|-----------8----------8--|


  Q    E.  S S S Q    E     Q    E.  S S S Q    E     Q    E.  S S S Q    E   
-------------------------|-------------------------|-------------------------|
-------------------------|--5----5-----5---5-------|--6----6-----6---6-------|
--5----5-----5---5-------|-----------5----------5--|-----------6----------6--|
-----------5----------5--|-------------------------|-------------------------|


  Q    E.  S S S Q    E     Q    E.  S S S Q    E     Q    E  E  E  E  E  E   
-------------------------|-------------------------|-------------------------|
--7----7-----7---7-------|--7----7-----7---7-------|--9----9-----9--9--9--9--|
-----------7----------7--|-----------7----------8--|----------9--------------|
-------------------------|-------------------------|-------------------------|


  E  E  E  E  E  E  E  E     E  E  E  E  E  E  E  E   
--------------------------|--------------------------|
--------------------------|--------------------------|
--------------------------|--5--5--5--5--5--5--5--5--|
--5--5--5--5--5--5--5--5--|--------------------------|


  E  E  E  E  E  E  E  E       E   E   E   E   E   E   E   E   
---------------------------|----------------------------------|
---------------------------|----------------------------------|
---------------------------|----------------------------------|
--3--3--3--3--3--3--3--3S--|--12--12--12--12--12--12--12--12--|


   E   E   E   E   E   E   E   E     E  E  E  E  E  E  E  E   
----------------------------------|--------------------------|
----------------------------------|--------------------------|
----------------------------------|--------------------------|
--13--13--13--13--13--13--13--13--|--5--5--5--5--5--5--5--5--|


   E   E   E   E   E   E   E   E     E  E  E  E  E  E  E  E   
----------------------------------|--------------------------|
----------------------------------|--------------------------|
----------------------------------|--------------------------|
--10--10--10--10--10--10--10--10--|--6--6--6--6--6--6--6--6--|


  E  E  E  E  E  E  E  E     E  E  E  E  E  E  E  E   
--------------------------|--------------------------|
--------------------------|--------------------------|
--------------------------|--------------------------|
--8--8--8--8--8--8--8--8--|--5--5--5--5--5--5--5--5--|


  E  E  E  E   E  E  E  E     Q    E.  S S S Q    E     Q    E.  S S S Q    E   
---------------------------|-------------------------|-------------------------|
---------------------------|-------------------------|-------------------------|
---------------------------|--5----5-----5---5-------|--2----2-----2---2-------|
--5--5--5--5S--9--9--9--9--|-----------5----------5--|-----------2----------2--|


  Q    E.  S S S Q    E     Q    E.  S S S Q    E     Q    E.  S S S Q    E   
-------------------------|-------------------------|-------------------------|
--4----4-----4---4-------|--5----5-----5---5-------|--2----2-----2---2-------|
-----------4----------4--|-----------5----------5--|-----------2----------2--|
-------------------------|-------------------------|-------------------------|


  Q    E.  S S S Q    E     Q    E.  S S S Q    E     Q    E.  S S S Q    E   
-------------------------|-------------------------|-------------------------|
-------------------------|-------------------------|-------------------------|
-------------------------|--1----1-----1---1-------|--2----2-----2---2-------|
--5----5---0-5---5----0--|-----------1----------1--|-----------2----------2--|


  Q    E.  S S S Q    E     Q    E  E  E  E  E  E   
-------------------------|-------------------------|
-------------------------|-------------------------|
--2----2-----2---2-------|--4----4-----4--4--4--4--|
-----------2----------2--|----------4--------------|


   E   E   E   E   E   E   E  E     E  E  E  E  E  E  E  E   
---------------------------------|--------------------------|
---------------------------------|--------------------------|
---------------------------------|--------------------7--8--|
--10--10--10--10--10--10--10--9--|--7--7--7--7--7--7--------|


  E  E  E  E  E  E  E  E      E   E   E   E   E   E   E  E   
--------------------------|---------------------------------|
--------------------------|---------------------------------|
--9--9--9--9--9--9--7--9--|--10--10--10--10--10--10--10--9--|
--------------------------|---------------------------------|


  E  E  E  E  E  E  E  E     E  E  E  E  E  E  E  E   
--------------------------|--------------------------|
--------------------------|--------------------------|
--7--7--7--7--7--7--7-----|--------------------------|
-----------------------7--|--5--5--5--5--5--5--4--5--|


  E  E  E  E  E  E  E  E     E  E  E  E  E  E  E  E   
--------------------------|--------------------------|
--------------------------|--------------------------|
--------------------------|--------------------------|
--6--6--6--6--6--6--4--6--|--7--7--7--7--7--7--7--7--|


  E  E  E  E  E  E  E  E     E  E  E  E  E  E  E  E      W                 
--------------------------|--------------------------|--------------------|
--------------------------|--------------------------|--12----------------|
--------------------------|--------------------------|--------------------|
--7--7--7--7--7--7--5--7--|--9--9--9--9--9--9--7--9--|--------------------|


  H         E   E   E   E     W                    H        E   Q     E   
-------------------14--19--|--L----------------|--23--------L--19--------|
--L--------14--16----------|-------------------|---------------------20--|
---------------------------|-------------------|-------------------------|
---------------------------|-------------------|-------------------------|


  W                    H        E   Q     E     H        E   E   E   E   
-------------------|--23--------L--19--------|--------------------------|
--L----------------|---------------------18--|--L--------L--14--16--17--|
-------------------|-------------------------|--------------------------|
-------------------|-------------------------|--------------------------|


  H.            Q          W                    H        E   E   E   E   
-----------------------|--------------------|---------------------------|
--L------------16br----|--12----------------|--15--------L------12--14--|
-----------------------|--------------------|---------------12----------|
-----------------------|--------------------|---------------------------|


  W                   W                   H        E  Q.      
-------------------|-------------------|---------------------|
--L----------------|--L----------------|--L--------L---------|
-------------------|-------------------|--------------5------|
-------------------|-------------------|---------------------|


  W                   W                   W                   W                 
-------------------|-------------------|-------------------|-------------------|
-------------------|-------------------|-------------------|-------------------|
--L----------------|--L----------------|--L----------------|--L----------------|
-------------------|-------------------|-------------------|-------------------|


-------------------|-------------------|-------------------|-------------------|
-------------------|-------------------|-------------------|-------------------|
-------------------|-------------------|-------------------|-------------------|
-------------------|-------------------|-------------------|-------------------|


-------------------|-------------------|-------------------|-------------------|
-------------------|-------------------|-------------------|-------------------|
-------------------|-------------------|-------------------|-------------------|
-------------------|-------------------|-------------------|-------------------|


-------------------|-------------------|-------------------|
-------------------|-------------------|-------------------|
-------------------|-------------------|-------------------|
-------------------|-------------------|-------------------|


-------------------||
-------------------||
-------------------||
-------------------||




Duration Legend
---------------
W - whole
H - half
Q - quarter
E - 8th
S - 16th
T - 32nd
X - 64th
. - note dotted
|-n-|  - n-tuplets


Tablature Legend
----------------
L - tied note
x - dead note
g - grace note
(n) - ghost note
> - accentuded note
NH - natural harmonic
AH - artificial harmonic
TH - tapped harmonic
SH - semi harmonic
PH - pitch harmonic
h - hammer on
p - pull off
b - bend
br - bendRelease
pb - preBend
pbr - preBendRelease
brb - bendReleaseBend
\n/ - tremolo bar dip
\n - tremolo bar dive
-/n - tremolo bar Release up
/n\ - tremolo bar inverted dip
/n - tremolo bar return
-\n - tremolo bar Release down
S - shift slide
s - legato slide
/ -  slide into from below or out of upwards
\ -  slide into from above or out of downwards
~ - vibrato
W - wide vibrato
tr - trill
TP - tremolo picking
T - tapping
S - slap
P - pop
< - fade in
^ - brush up
v - brush down
comments
We did not receive enough feedback on this tab! Please rate:
print report bad tab
1 2 3 4 5
1 comment total.
0 reply
Dami_California wrote on February 21 2014, 04:37 pm

Wonderfull!

I want to post or [tab]
guest
You may want to rate the tab now too:
select rating
Please do not post tabs as comments. Select "correction" instead!