Oops, an error
Loading. Please wait.

Hate This And Ill Love You Tab

by Muse
ver2
ver2

Whole song

More versions @911Tabs.com
4,299 views 3 this week
3 commentsread comments
1 2 3 4 5
accurate
x 6
add to favorites launch autoscroll
font size
0
reset
Autoscroll
+/-
esc
set tempo
stop
Contributor
WARNING: You are trying to view
                                    content from Ultimate-Guitar.com
                                    in an unauthorized application,
                                    which is prohibited.

                                    Please use an official Ultimate
                                    Guitar Tabs application for iPhone,
                                    iPad or Android to access legitimate
                                    chords, guitar, bass, and drum tabs
                                    from Ultimate-Guitar.com database.

                                    Type "ultimate guitar tabs" in Apple
                                    App Store's or Android Market's
                                    search to find the application.
-------------------------------------------------------------------------------
                             Hate This & I'll Love You - MUSE
-------------------------------------------------------------------------------


Tabbed by: Kube
Email: oli.forstner@hotmail.com


Hey guitar-heroes...that's what i got for this song...
i have to say that this is my first tab, the bar lines
for the beat aren't on the right place, i put them there
only to make it easier to understand what is coming in 
the next beat...but don't take the places of the bars/notes 
serious they are only approximately placed, you have to listen
to the song....but that shouldn't be a problem...thx, have fun

please don't be hard with me, it is my first one...thx

Tuning: EADGBe


Intro (keyboard arranged for guitar)
e|---------------5------6----|--6--------10----9--|------6--5------------|-2--------|
B|-------------5--------5----|--------------------|----------------------|---3------|
G|-----------6----------6----|------------0-------|----------------------|-----2----|
D|---------------------------|--------------------|--4-------------------|----------|
A|---------------------------|--------------------|----------------------|----------|
E|-----5---------------------|--3-----------------|----------------------|----------|


e|----------------------6----|--6----5----3----5--|--------------------3-|--2-------|
B|----------------------5----|--------------------|----------------------|----------|
G|----------------------6----|--------------------|----------------------|----------|
D|---------------------------|--------------------|----------------------|----------|
A|-----0---------------------|--------------------|----------------------|----------|
E|---------------------------|--3-----------------|--2-------------------|----------|


Verse
e|---------------------------|-------------------------------|-------------------|--|
B|-----------------2---------|--------------3----------------|----------3--------|--|
G|---------2-----------------|------3-----------3------------|--2----------------|--|
D|-----2-------2-------------|--0-------0-----------0--------|------0------------|--|
A|---------------------------|-------------------------------|-------------------|--|
E|---------------------------|-------------------------------|-------------------|--|


e|---------------------------|-------------------------------|-------------------|--|
B|-----------------2---------|--------------3----------------|-------------------|--|
G|---------2-----------------|------3-----------3------------|--2----------------|--|
D|-----2-------2-------------|--0-------0-----------0--------|------0------------|--|
A|---------------------------|-------------------------------|-------------------|--|
E|---------------------------|-------------------------------|-------------------|--|


e|---------------------------|-~3----------------------------|-------------------|--|
B|-----------------2---------|-~3-----------3----------------|----------3--------|--|
G|---------2-----------------|-~3---------------3------------|--2----------------|--|
D|-----2-------2-------------|--0-------------------0--------|------0------------|--|
A|---------------------------|-------------------------------|-------------------|--|
E|---------------------------|-------------------------------|-------------------|--|


e|---------------------------|-------------------------------|-------------------|
B|-----------------2---------|--------------3----------------|----------3--------|
G|---------2-----------2-----|------------------3------------|--2-----------2----|
D|-----2-------2-----------2-|--0-------------------0--------|------0-----------0|
A|---------------------------|-------------------------------|-------------------|
E|---------------------------|-------------------------------|-------------------|

  ----------------------------------|
  ---------------3-------0----------|
  -------2-----------2---0----------|
  -----------0-----------0----------|
  ---0------------------------------|
  ----------------------------------|


Chorus
e|------------0---0---------|-----------------2---------|-----------------------------|
B|------------0-------0-----|---------3-----------3-----|----------------3------------|
G|------------0-----------0-|---------4---------------4-|---------4----------4------4-|
D|---------2----------------|------4------4-------------|------4------4----------4----|
A|--------------------------|--2------------------------|-----------------------------|
E|-----0--------------------|---------------------------|--2--------------------------|

  ----------------2-------|
  ---------2------2-------|
  --3----------3----------|
  --4----------------0-0--|
  -------------------0-0--|
  ------2------------0-0--|


e|---------------0----------|----------------2----------|--2--------------------------|
B|---------------0----------|---------2------2----------|--3--------------------------|
G|---------0--------0-------|---------------------------|--4--------------------------|
D|------------2-------------|------4------4-------------|--4--------------------------|
A|-----2--------------------|---------------------4---4-|--2--------------------------|
E|-----0---------------0--1-|--2------------------2---2-|-----------------------------|

  --(2)-------------------|
  --(3)-------------------|
  --(4)-------------------|
  --(4)-------------------|
  --(2)-------------------|
  ------------------------|


2. Verse
e|---------------------------|------------------------|------------------------|
B|-----------------2---------|--------------3---------|----------------------3-|
G|-------------2-------------|----------3-------------|--2---------------------|
D|---------2---------------0-|------0---------------0-|--0---------------------|
A|-----0---------------------|------------------------|------------------------|
E|---------------------------|--3---------------------|------------------------|

  ---------0----------------|
  -----3-------3------------|
  -----------------2--------|
  --0-----------------------|
  --------------------------|
  --------------------------|


e|---------------------------|------3-------3---------|--2-----------2---------|
B|-----------------2---------|------3-----------3-----|--3---3-----------3-----|
G|-------------2-------2-----|----------3-----------3-|--2-------2-----------2-|
D|---------2---------------2-|------------------------|--0---------------------|
A|-----0---------------------|------------------------|------------------------|
E|---------------------------|--3---------------------|------------------------|

  ----------------2---------|
  -------------3------3-----|
  ------2---2-------------2-|
  --0-----------------------|
  --------------------------|
  --------------------------|


e|---------------------------|------------------------|------------------------|--|
B|-----------------2---------|--------------3---------|------------------------|--|
G|-------------2-------2-----|----------3-------3-----|----------2-------------|--|
D|---------2---------------0-|------0---------------0-|------0-----------------|--|
A|-----0---------------------|------------------------|------------------------|--|
E|---------------------------|--3---------------------|--2---------------------|--|


e|-----------------0---------|--------------3---------|--------------2---------|
B|-----2---------------2-----|------3-----------3-----|----------3-------3-----|
G|---------2---------------2-|--3-------3-----------3-|------2---------------2-|
D|-------------2-------------|------------------------|--0---------------------|
A|---------------------------|------------------------|------------------------|
E|---------------------------|------------------------|------------------------|

  --2-----------------------|
  ------3---------------3-3-|
  ----------2-------2---2-2-|
  --------------0-------0-0-|
  --------------------------|
  --------------------------|


2. Chorus
e|------------0---0---------|-----------------2---------|-----------------------------|
B|------------0-------0-----|---------3-----------3-----|----------------3------------|
G|------------0-----------0-|---------4---------------4-|---------4----------4------4-|
D|---------2----------------|------4------4-------------|------4------4----------4----|
A|--------------------------|--2------------------------|-----------------------------|
E|-----0--------------------|---------------------------|--2--------------------------|

  ----------------2-------|
  ---------2------2-------|
  --3----------3----------|
  --4----------------0-0--|
  -------------------0-0--|
  ------2------------0-0--|


e|---------------0----------|----------------2----------|-------------2------2---2-------2---2---2-|
B|---------------0----------|---------2------2----------|-------------3------3---3-------3---3---3-|
G|---------0--------0-------|---------------------------|-------------4------4---4-------4---4---4-|
D|------------2-------------|------4------4-------------|--4----------4------4---4-------4---4---4-|
A|-----2--------------------|---------------------4---4-|--2----------2------2---2-------2---2---2-|
E|-----0---------------0--1-|--2------------------2---2-|------------------------------------------|


e|------------------|---------------------2-------2---------|--3------3---3---3---3---3------3---3--
B|------------------|--0-------0---0------0-----------0-----|--0------0---0---0---0---0------0---0--
G|-----4------4---4-|--4-------4---4------4---------------4-|--4------4---4---4---4---4------4---4--
D|-----4------4---4-|--4-------4---4------4---------------4-|--3------3---3---3---3---3------3---3--
A|-----0------0---0-|---------------------------------------|---------------------------------------
E|------------------|--4-------4---4----------------------4-|--3------3---3---3---3---3------3---3--

  -3---3---|
  -0---0---|
  -4---4---|
  -3---3---|
  ---------|
  -3---3---|


e|-----0------0---------0-------------------|----------------------3-----3-|------
B|-----0------0---------0-------------------|--3-----3---3-----3---3-----3-|--0---
G|-----0------0---------0-------------------|--0-----0---0-----0---0-----0-|--0---
D|-----2------2---------------2---2---2---2-|--0-----0---0-----0---0-----0-|--2---
A|-----2------2---------------2---2---2---2-|--2-----2---2-----2---2-----2-|--2---
E|-----0------0-----0---------0---0---0---0-|--3-----3---3-----3---3-----3-|--0---

--------3---3-3-3-3-
0-0---0-0---0-0-0-0-
0-0---0-0---0-0-0-0-
2-2---2-2---2-2-2-2-
2-2---2-2---2-2-2-2-
0-0---0-0---0-0-0-0-


  -------|
  -------|
  -------|
  -------|
  -------|
  -------|


e|-----2---2-2---2-2---2-2-2-2-|------------------------|------------------------|
B|-----2---2-2---2-2---2-2-2-2-|--------------3---------|--------------3---------|
G|-----3---3-3---3-3---3-3-3-3-|----------4-------4-----|----------4-------4-----|
D|-----4---4-4---4-4---4-4-4-4-|------4---------------4-|------4---------------4-|
A|-----4---4-4---4-4---4-4-4-4-|--2---------------------|--0---------------------|
E|-----2---2-2---2-2---2-2-2-2-|------------------------|------------------------|

  ---------------------------|
  --------------0------------|
  ----------4-------4--------|
  ------4---------------4----|
  ---------------------------|
  --4------------------------|


e|---------------------------|--------------0---------|--------------3---------|
B|-----------------0---------|------------------0-----|----------3-------3-----|
G|-------------4-------4-----|--0-------0-----------0-|----------------------0-|
D|---------3---------------3-|--2---2---------------2-|------0-----------------|
A|---------------------------|----------------------2-|------------------------|
E|-----3---------------------|--0---------------------|--3---------------------|

  -----------------------------|
  --------------0--------------|
  ----------0-------0----------|
  ------2---------------0------|
  -----------------------------|
  --0--------------------------|


e|-----------------2---------|------------------------|------------------------|
B|---------------------2-----|--------------3---------|--------------3---------|
G|-------------3-----------3-|----------4-------4-----|----------4-------4-----|
D|---------4-----------------|------4---------------4-|------4---------------4-|
A|---------------------------|--2---------------------|--0---------------------|
E|-----2---------------------|------------------------|------------------------|

  --3-------------------3------|
  --------------3--------------|
  ------3-----------3----------|
  ----------0------------------|
  -----------------------------|
  --3--------------------------|

                                                      (keyboard for guitar)
e|-----2-----------2---------|------------------------|-------------------------
B|---------------------3-----|--------------2---------|--3-------------------3--
G|-------------------------2-|----------2-------2-----|--3-------------------2--
D|-----0---------------------|------2---------------2-|--5-------------------5--
A|---------------------------|--0---------------------|----------------------5--
E|---------------------------|------------------------|--3----------------------

  -----------------------------|
  ----------------3------------|
  ----------------2------------|
  ----------------4------------|
  ----------------5------------|
  -----------------------------|


Solo (slight distortion/echo) (two guitars arranged for one)
e|----------------------------------------------------------------------------------|
B|------------------3-------------------------------6b7-----------------------------|
G|----------------2/3------------7--------7--------7-----7---7b8---7b8--------------|
D|-----6~----------------------4/7------------7---7---------------------7-----------|
A|----------------------------------------------------------------------------------|
E|----------------------------------------------------------------------------------|


e|--------------------------------------------------------------------------------|
B|-----1b2--------2/3-----------------------------6b7-------6b7-------6b7---------|
G|------------2---------------------------7-------------7---------7---------7-----|
D|-----------------------------4/7------------7-----------------------------------|
A|--------------------------------------------------------------------------------|
E|--------------------------------------------------------------------------------|


e|--------------------------------------------------------------------------------|
B|-----1b2-----2-----2/3-3b4-------------7------------------6b7-------------------|
G|-----------2---2---2/3-3b4---------7--------------------------------------7-----|
D|-----------------------------4/7----------------------------------------------7-|
A|--------------------------------------------------------------------------------|
E|--------------------------------------------------------------------------------|


e|--------------------------------------------------------------------------------|
B|-----1b2-----------2/3---3-------------------6b7-------6b7---------6b7----------|
G|-----------2---2---2/3-----3-------7-------------7---------7-------------7------|
D|-----------------------------4/7-------7-7---------7---------7---------------7\-|
A|--------------------------------------------------------------------------------|
E|--------------------------------------------------------------------------------|


"Breakdown"
e|---------------0-|------------2---------|--2---2---2---2---|--2---2----2---2-2------|
B|---------------0-|------------3---3-----|--2---2---2---2---|--2---2----2---2-2------|
G|---------0-----0-|------4-----4---------|--3---3---3---3---|--3---3----3---3-3------|
D|-------------2---|--4-------4-----------|--4---4---4---4---|--4---4----4---4-4------|
A|-----2-----------|--2-------------------|--4---4---4---4---|--4---4----4---4-4------|
E|-----0-----------|--------------------0-|--2---2-0-2---2-0-|--2---2-0--2---2-2-0-0--|


e|-----0---0-------0---0-0-|--2---2---2-2---2---2---2---2-|--2---2---2-2---2-2-2------|
B|-----0---0-------0---0-0-|--2---2---2-2---2---2---2---2-|--3---3---3-3---3-3-3------|
G|-----0---0-------0---0-0-|--3---3---3-3---3---3---3---3-|--4---4---4-4---4-4-4------|
D|-----2---------------2-2-|--4---4---4-4---4---4---4---4-|--4---4---4-4---4-4-4------|
A|-----2-------2-------2-2-|--4---4---4-4---4---4---4---4-|--2---2---2-2---2-2-2------|
E|-----0-------0-------0-0-|--2---2---2-2---2---2---2---2-|---------------------------|


e|-----2---2---2-2---2---2---2-|--2---2---2---2---2---2-2-|---------------------------|
B|-----3---3---3-3---3---3---3-|--0---0---0---0---0---0-0-|--3---3---3---3---3---3-3--|
G|-----4---4---4-4---4---4---4-|--4---4---4---4---4---4-4-|--4---4---4---4---4---4-4--|
D|-----4---4---4-4---4---4---4-|--4---4---4---4---4---4-4-|--3---3---3---3---3---3-3--|
A|-----0---0---0-0---0---0---0-|--------------------------|---------------------------|
E|-----------------------------|--4---4---4---4---4---4-4-|--3---3---3---3---3---3-3--|


e|---0--0--0--0--0--00-|-3--3--3--3--3--3-3-|-0--0--0--0--0--0-0-|-2--2--2--2--2--2-2-|
B|---0--0--0--0--0--00-|-3--3--3--3--3--3-3-|-0--0--0--0--0--0-0-|-2--2--2--2--2--2-2-|
G|---0--0--0--0--0--00-|-0--0--0--0--0--0-0-|-0--0--0--0--0--0-0-|-3--3--3--3--3--3-3-|
D|---2--2--2--2--2--22-|-0--0--0--0--0--0-0-|-2--2--2--2--2--2-2-|-4--4--4--4--4--4-4-|
A|---2--2--2--2--2--22-|-2--2--2--2--2--2-2-|-2--2--2--2--2--2-2-|-4--4--4--4--4--4-4-|
E|---0--0--0--0--0--00-|-3--3--3--3--3--3-3-|-0--0--0--0--0--0-0-|-2--2--2--2--2--2-2-|


e|-------------------------------|---------------------------|----------------3---------|
B|-------------------3-----------|---------------3-----------|--------3-----------3-----|
G|-----------4-----------4-----4-|-------4-----------4-----0-|------3-----3-----------3-|
D|---------4-----4-----------4---|-----4-----4-----------0---|--------------------------|
A|-----2-------------------------|-0-------------------------|--------------------------|
E|-------------------------------|---------------------------|--3-----------------------|

  ----------------2---------|
  --------3-----------3-----|
  ------2-----2-----------2-|
  --------------------------|
  --------------------------|
  --2-----------------------|


e|-------------------------------|---------------------------|----------------2---------|
B|-------------------2-----------|--------------3------------|--------3-----------3-----|
G|-----------2-----------2-------|--------3---------3--------|------2-----2-----------2-|
D|---------2-----2-----------2---|------0-----0---------0----|--0-----------------------|
A|-----0-------------------------|---------------------------|--------------------------|
E|-------------------------------|--3------------------------|--------------------------|

  --2-----------2-----------|
  ------3-----------3-------|
  ----------2-----------2---|
  --------------------------|
  --------------------------|
  --------------------------|


Outro
e|-----------------------12----------------|--------------------10----------------|
B|-----------14-------14----14-------------|--------11-------11----11-------------|
G|--------14-------14----------14----14----|-----12-------12----------12----12----|
D|--------------14----------------14----14-|-----------12----------------12----12-|
A|-----12----------------------------------|--10----------------------------------|
E|-----------------------------------------|--------------------------------------|

  -------------------10----------------|
  -------10-------10----10-------------|
  ----11-------11----------11----11----|
  ----------12----------------12----12-|
  --9----------------------------------|
  -------------------------------------|






| /  slide up
| \  slide down
| h  hammer-on
| p  pull-off
| ~  vibrato
| +  harmonic
| x  Mute note
===============================================================================
comments
print report bad tab
3 comments total.
0 reply
Silverwolf772 wrote on February 1 2013, 06:42 am

if "p" is pull-off, then what are all the b's in the solo :/ also pull-offs?

0 reply
louisdebmusic wrote on May 14 2013, 06:39 am

'b's are bends

0 reply
guitarandbass95 wrote on April 26 2014, 12:55 am

I think the solo part is played with one of those glass slide things.

I want to post or [tab]
guest
You may want to rate the tab now too:
select rating
Please do not post tabs as comments. Select "correction" instead!