Oops, an error
Loading. Please wait.

Hullabaloo Part 1 Bass Tab

by Muse
40 views 1 this week
no commentswrite comment
1 2 3 4 5
please rate
Autoscroll
+/-
esc
set tempo
stop
Contributor
Difficulty
advanced
Hey! There's an official Ultimate Guitar app which is ideal
for learning songs when you're away from computer. Get the app
WARNING: You are trying to view
                                    content from Ultimate-Guitar.com
                                    in an unauthorized application,
                                    which is prohibited.

                                    Please use an official Ultimate
                                    Guitar Tabs application for iPhone,
                                    iPad or Android to access legitimate
                                    chords, guitar, bass, and drum tabs
                                    from Ultimate-Guitar.com database.

                                    Type "ultimate guitar tabs" in Apple
                                    App Store's or Android Market's
                                    search to find the application.
-------------------------------------------------------------------------------
                    Hullabaloo Soundtrack [Bonus CD] Disc 1                    
-------------------------------------------------------------------------------


TRACKS
01. Forced In
02. Shrinking Universe
03. Recess
04. Yes Please
05. Map of Your Head
06. Nature_1
07. Shine [Acoustic]
08. Ashamed
09. The Gallery
10. Hyper Chondriac Music


While these songs have been tabbed individually, I've rewritten tabs for all the tracks myself
and collated them into an album tab. I believe there were inaccuracies in previous tabs that I
have hopefully corrected here. Enjoy!

Note: I have also created a formatted printable PDF version of this album tab for you to print
out, which can be downloaded here: http://goo.gl/HiGf3b


KEY
/  Slide Up
\  Slide Down
~  Hold


Hullabaloo Soundtrack by Muse
Bass tabs by JimbobJeffers




-------------------------------------------------------------------------------
                                 01. Forced In                                 
-------------------------------------------------------------------------------

This is a slow song, open to improvisation as it builds up.

Intro [0:08]
G|----------------|----------------|
D|----------------|----------------|
A|----------------|----------------| x4
E|5~--------------|3~--------------|


Rest [0:34]


[0:47]
G|----------------|----------------|      G|----------------|----------------|
D|----------------|----------------|      D|----------------|----------------|
A|----------------|----------------| x8   A|----------------|----------------| x2
E|1-1-------------|2-2-------------|      E|5~--------------|3~--------------|


[1:38]
G|----------------|----------------|      G|----------------|----------------|
D|----------------|----------------|      D|----------------|----------------|
A|----------------|----------------| x4   A|----------------|----------------| x4
E|5-5~------------|3-3-3~----------|      E|1-1-------------|2-2-------------|


[2:30]
G|----------------|----------------|      G|----------------|----------------|
D|----------------|----------------|      D|----------------|----------------|
A|----------------|----------------| x4   A|----------------|----------------| x4
E|5-5-------------|4-4-------------|      E|1-1-------------|2-2-------------|


Outro [3:22]
G|----------------|----------------|      G|----------------|
D|----------------|----------------|      D|----------------|
A|----------------|----------------| x4   A|----------------|
E|1-1-------------|2-2-------------|      E|11-----11-1-----|




-------------------------------------------------------------------------------?
                            02. Shrinking Universe                             
-------------------------------------------------------------------------------

I?ve seen versions of this tab with Drop D tuning, but I think Chris might actually
use a 5-string bass (see Verse 3).

Verse 1 [0:07]
G|----------------|----------------|----------------|----------------|
D|----------------|----------------|----------------|----------------|
A|----------------|----------------|----------------|----------------| x2
E|5~\------------5|7~\------------7|3~\------------3|5~\-------------|


Chorus 1 [0:39]
G|----------------|----------------|----------------|----------------|
D|----------------|----------------|----------------|----------------|
A|----------------|----------------|----------------|---------------5|
E|5~\-------------|----------------|10\-------------|----------------|

G|----------------|----------------|----------------|----------------|
D|----------------|----------------|----------------|----------------|
A|----------------|----------------|---------------5|----------------|
E|3~\-------------|----------------|10\-------------|5~--------------|


Verse 2 [0:54]
G|----------------|----------------|----------------|----------------|
D|----------------|----------------|----------------|----------------|
A|----------------|----------------|----------------|----------------| x2
E|5~------5----5-5|5~--------5----5|5~------5----5-5|5~--------5----5|


Chorus 2 [1:26]
G|----------------|----------------|----------------|----------------|
D|----------------|----------------|----------------|----------------|
A|----------------|----------------|----------------|----------------|
E|5~\----------5-5|9~\----------9-9|10\-------------|------------1010|

G|----------------|----------------|----------------|----------------|----|
D|----------------|----------------|----------------|----------------|----|
A|----------------|----------------|----------------|----------------|----|
E|3~\----------3-3|10\---------1010|5~--------------|----------------|0~--|


Verse 3 [1:57]
G|----------------|----------------|----------------|----------------|
D|----------------|----------------|----------------|----------------|
A|----------------|----------------|----------------|----------------|
E|5-5-5-5-5-5-5-5-|5-5-5-5-5-5-5-5-|0-0-0-0-0-0-0-0-|----------------|
B|----------------|----------------|----------------|3-3-3-3-3-3-3-3-|

G|----------------|----------------|
D|----------------|----------------|
A|----------------|----------------|
E|----------------|----------------|
B|1-1-1-1-1-1-1-1-|3-3-3-3-3-3-3-3-|


Chorus 3 [2:09]
G|----------------|----------------|----------------|----------------| \
D|----------------|----------------|----------------|----------------| |
A|----------------|----------------|----------------|----------------| |
E|5-5-5-5-5-5-5-5-|9-9-9-9-9-9-9-9-|1010101010101010|1010101010101010| |
                                                                       | x3*
G|----------------|----------------|----------------|----------------| |
D|----------------|----------------|----------------|----------------| |
A|----------------|----------------|----------------|----------------| |
E|7-7-7-7-7-7-7-7-|0-0-0-0-0-0-0-0-|5-5-5-5-5-5-5-5-|5-5-5-5-5-5-5-5-| /

*On the last run through, replace the last four bars with this:
G|----------------|----------------|----------------|----------------|
D|----------------|----------------|----------------|----------------|
A|----------------|----------------|----------------|----------------|
E|7~--------------|0~--------------|5~--------------|----------------|




-------------------------------------------------------------------------------
                                  03. Recess                                   
-------------------------------------------------------------------------------

This is great for timing practice. Play the first two Verses and Choruses quietly.

Verse 1 [0:00]
G|--------|--------|--------|--------|
D|--------|--------|--------|--------|
A|--------|--------|--------|--------|
E|--------|--------|--------|-------5|

G|--------|--------|--------|--------|    G|--------|--------|--------|--------|
D|--------|--------|--------|--------|    D|--------|--------|--------|--------|
A|--------|--------|--------|--------| x3 A|--------|--------|--------|--------|
E|00770~7-|-------7|00550~5-|-------5|    E|00770~7-|-------7|00550~5-|--------|


Chorus [0:34]
G|--------|--------|--------|--------|    G|--------|--------|--------|--------|
D|--------|--------|--------|--------|    D|--------|--------|--------|--------|
A|--------|--------|--------|--------| x2 A|55005~00|55005~00|--------|--------|
E|00770~77|00770~77|00550~55|00550~55|    E|--------|--------|44004~00|44004~00|

G|--------|--------|--------|--------|
D|--------|--------|--------|--------|
A|--------|--------|--------|--------|
E|55555555|55555555|55555555|55555557|


Bridge, Verse 2 [1:01]
G|--------|--------|--------|--------|    G|--------|--------|--------|--------|
D|--------|--------|--------|--------|    D|--------|--------|--------|--------|
A|--------|--------|--------|--------| x5 A|--------|--------|--------|--------|
E|0077007-|-------7|0055005-|-------5|    E|0077007-|-------7|0055005-|--------|


Chorus [1:42]


Verse 3 [2:10]
G|--------|--------|--------|--------|    G|--------|--------|--------|--------|
D|--------|--------|--------|--------|    D|--------|--------|--------|--------|
A|--------|--------|--------|--------| x3 A|--------|--------|--------|--------|
E|0077007-|-------7|0055005-|-------5|    E|0077007-|-------7|0055005-|--------|


Chorus 2 [2:37]
G|--------|--------|--------|--------|    G|--------|--------|--------|--------|
D|--------|--------|--------|--------|    D|--------|--------|--------|--------|
A|--------|--------|--------|--------| x4 A|55005500|55005500|--------|--------| x3
E|00770077|00770077|00550055|00550055|    E|--------|--------|44004400|44004400|

G|--------|--------|--------|--------|--------|
D|--------|--------|--------|--------|--------|
A|--------|--------|--------|--------|--------|
E|55555555|55555555|55555555|55555557|00770~7-|




-------------------------------------------------------------------------------
                                04. Yes Please                                 
-------------------------------------------------------------------------------

Intro [0:06]
G|----------------|----------------|----------------|----------------|
D|----------------|----------------|----------------|----------------|
A|----------------|----------------|----------------|----------------|
D|0-0-0-0-0-0-0-0-|4-4-4-4-4-4-4-4-|3-3-3-3-3-3-3-3-|3-3-3-3-3-3-3-3-|

G|----------------|----------------|----------------|----------------|
D|----------------|----------------|----------------|----------------|
A|----------------|----------------|----------------|----------------|
D|0-0-0-0-0-0-0-0-|4-4-4-4-4-4-4-4-|3-3-3-3-3-3-3-3-|3-3-3-3-3-3-4---|


[0:19]                           [0:25]
G|----------------|              G|----------------|
D|----------------|              D|----------------|
A|----------------|   * Rest *   A|----------------|   * Rest *
D|4\--------------|              D|0-3-4-5-5-------|


[0:31]
G|----------------|   G|----------------|       G|----------------|
D|----------------|   D|----------------|       D|----------0-3-4-|
A|----------------|   A|----3-4-5-------| x15   A|----3-4-5-------|
D|----------0-3-4-|   D|5-0-------0-3-4-|       D|5-0-------------|


Verse 1 [0:55]
G|----------------|      G|----------------|      G|----------------| \
D|----------------|      D|----------------|      D|----------0-3-4-| | Play this
A|5-----------3-4-| x4   A|----3-4-5-------| x3   A|----3-4-5-------| |   all x2
D|--0-3-4-5-0-----|      D|5-0-------0-3-4-|      D|5-0-------------| /
                                                    ^Second time around, this bar
                                                     is instead same as previous
Pre-Chorus [1:18]
G|----------------|----------------|
D|----------------|----------------|
A|----------------|----------------|
D|5--5-3~--------0|5--5-3~-0-0-0-0-|


Chorus [1:24]
G|----------------|----------------|----------------|----------------|
D|----------------|----------------|----------------|--------------0-|
A|----------------|----------------|----------------|--3-3-3-3-3-3---|
D|0-0-0-0-0-0-0-0-|5-5-5-5-5-5-5-5-|3-3-3-3-3-3-3-3-|3---------------|

G|----------------|----------------|----------------|----------------|
D|3-0-------------|----------------|----------------|--------------0-|
A|----------------|----------------|----------------|--3-3-3-3-3-3---| x2
D|----0-0-0-0-0-0-|5-5-5-5-5-5-5-5-|3-3-3-3-3-3-3-3-|3---------------|

G|----------------|----------------|----------------|----------------|
D|3-0-------------|----------------|----------------|----------------|
A|----------------|----------------|----------------|----------------|
D|----0-0-0-0-0-0-|5-5-5-5-5-5-5-5-|3~--------------|------------4~--|


Verse 2 [1:48] - Same as Intro riff, but faster
G|----------------|      G|----------------|
D|----------------|      D|----------0-3-4-|
A|----3-4-5-------| x7   A|----3-4-5-------|
D|5-0-------0-3-4-|      D|5-0-------------|


Verse 1 [1:58], Pre-Chorus [2:22], Chorus [2:27]


Outro [2:49] - Same speed as Verse 2
G|----------------|      G|----------------|
D|----------------|      D|----------------|
A|----3-4-5-------| x8   A|----------------|
D|5-0-------0-3-4-|      D|5~--------------|



?
-------------------------------------------------------------------------------
                             05. Map of Your Head                              
-------------------------------------------------------------------------------

Rest [0:00]


[0:54]
G|----------------|----------------|
D|----------------|----------------|
A|00--00--00--00--|00--22----------| x2
D|----------------|--------44--00--|


Rest [1:19]


[1:57]
G|----------------|----------------|
D|----------------|----------------|
A|00--00--00--00--|00--22----------| x2
D|----------------|--------44--00--|


Rest [2:22]


[2:35]
G|----------------|----------------|
D|----------------|----------------|
A|00------00------|00--------------| x2
D|----------------|--------44------|


[3:01]
G|----------------|----------------|
D|----------------|----------------|
A|00--55--00--55--|00--22----------| x2
D|----------------|--------44--00--|


Rest [3:26]




-------------------------------------------------------------------------------?
                                 06. Nature_1                                  
-------------------------------------------------------------------------------

A relatively slow song, the notes aren't a generic beat so follow the drums.


Rest [0:00]


Verse [0:41]
G|----------------|----------------|
D|----------------|----------------|
A|----------------|----------------| x4
E|22-22-22-22-2-2-|33-33-33-33-3-3-|


Chorus [1:08]
G|----------------|----------------|      G|----------------|----------------|
D|----------------|----------------|      D|----------------|----------------|
A|----------------|2--2------------| x3   A|----------------|2--2----2--2----|
E|2--2----2--2----|--------3--3----|      E|2--2----2--2----|----------------|


Rest [1:36]


Bridge [1:42]
G|----------------|----------------|
D|----------------|----------------|
A|------3~----3~--|------1~----1~--| x8
E|5~--5-----5-----|3~--3-----3-----|


Verse [2:10]


Chorus [2:37]


Outro [3:18]
G|----------------|----------------|
D|----------------|----------------|
A|------3~----3~--|------1~----1~--| x4
E|5~--5-----5-----|3~--3-----3-----|

G|----------------|
D|----------------|
A|----------------|
E|55-55-55-55-6-6-|




-------------------------------------------------------------------------------?
                             07. Shine [Acoustic]                              
-------------------------------------------------------------------------------

Rest [0:00]


Verse 1 [0:38]
G|----------------|----------------|----------------|----------------|
D|----------------|----------------|----------------|----------------|
A|3-3~------------|3-3~------------|5-5~------------|----------------| x4
E|----------------|----------------|----------------|3-3~------------|


Chorus [1:28]
G|----------------|----------------|----------------|----------------|
D|----------------|----------------|----------------|----------------|
A|----------------|----------------|3-3~----2-2~----|0-0~------------|
E|5~------3~------|1~------3~------|----------------|--------3-3~----|

G|----------------|----------------|----------------|----------------|
D|----------------|----------------|----------------|----------------|
A|----------------|----------------|3~--------------|----------------|
E|1~------2~------|3~------3-3~----|----------------|----------------|


Verse 2 [2:00]
G|----------------|----------------|----------------|----------------|
D|----------------|----------------|----------------|----------------|
A|3-3~------------|3-3~------------|5-5~------------|----------------| x2
E|----------------|----------------|----------------|3-3~------------|


Chorus [2:26]


Verse 3 [2:57]
G|----------------|----------------|----------------|----------------|
D|----------------|----------------|----------------|----------------|
A|3-3-3-3-3-3-3-3-|3-3-3-3-3-3-3-3-|5-5-5-5-5-5-5-5-|----------------| x2
E|----------------|----------------|----------------|3-3-3-3-3-3-3-3-|


Chorus 2 [3:21]
G|----------------|----------------|----------------|----------------|
D|----------------|----------------|----------------|----------------|
A|----------------|----------------|3-3~----2-2~----|0-0~------------|
E|5~------3~------|1~------3~------|----------------|--------3-3~----|

G|----------------|----------------|--------5~------|--------1~------|
D|----------------|----------------|----5~------5~--|----2~------2~--|
A|----------------|----------------|3~--------------|2~--------------|
E|1~------2~------|3~------3-3~----|----------------|----------------|

G|--------5~------|--------5~------|----------------|----------------|
D|----2~------2~--|----2~------2~--|--------3~------|----------------|
A|0~--------------|----------------|----3~------3~--|----3~--5~--3~--|
E|----------------|3~--------------|1~--------------|2~--------------|

G|----------------|----------------|--------5~------|--------1~------|
D|--------5~------|--------5~------|----5~------5~--|----2~------2~--|
A|----5~------5~--|----5~------5~--|3~--------------|2~--------------|
E|3~--------------|3~--------------|----------------|----------------|

G|--------5~------|--------5~------|----------------|----------------|
D|----2~------2~--|----2~------2~--|--------3~------|----------------|
A|0~--------------|----------------|----3~------3~--|----3~--5~--3~--|
E|----------------|3~--------------|1~--------------|2~--------------|
                                    ^Decrease speed from this point onward

G|----------------|----------------|----------------|----------------|
D|----------------|----------------|----------------|----------------|
A|----------------|3~--------------|----------------|----------------|
E|3~------3~------|----------------|----------------|----------------|




-------------------------------------------------------------------------------?
                                  08. Ashamed                                  
-------------------------------------------------------------------------------

Riff A
G|----------------|
D|----------------|
A|----0~-2-33-2-0-|
E|2~--------------|


Riff B
G|----------------|      G|----------------|
D|----------------|      D|----------------|
A|----------------| x3   A|----0~-2-33-2-0-|
E|22-022-020202-0-|      E|2~--------------|


Riff C
G|----------------|      G|----------------|
D|----------------|      D|----------------|
A|----------------| x2   A|----0~-2-33-2-0-| x2
E|22-022-020202-0-|      E|2~--------------|


Chorus
G|----------------|      G|----------------|
D|------------2-4-|      D|----------4242--|
A|----0~-2-33-----| x3   A|----0~-2------32|
E|2~--------------|      E|2~--------------|

G|----------------|      G|----------------|
D|------------2-4-|      D|----------------|
A|----0~-2-33-----| x3   A|-------2~-------|
E|2~--------------|      E|2---2-----------|


Outro
G|----------------|      G|----------------|
D|----------------|      D|----------------|
A|----------------| x3   A|----------------|
E|14~-\---2-------|      E|14~-\---2~--/---|

G|----------------|      G|----------------|
D|----------------|      D|----------------|
A|----------------| x3   A|----------------|
E|14~-\---2-------|      E|14--------------|

G|----------------|      G|----------------|       G|----------------|
D|----------------|      D|----------------|       D|----------------|
A|--------3-------| x8   A|--------0-------| x15   A|--------3-------|
E|2-0-1-2---2-0-1-|      E|2-0-1-2---2-0-1-|       E|2-0-1-2---1~----|


Song Structure:
Rest      [0:00]
Riff A x8 [0:19]
Riff B x3 [0:35]
Riff C x2 [0:59]
Chorus    [1:15]
Riff A x8 [1:32]
Riff B    [1:48]
Riff C x2 [1:56]
Chorus    [2:12]
Riff A x8 [2:30]
Outro     [2:45]




-------------------------------------------------------------------------------?
                                09. The Gallery                                
-------------------------------------------------------------------------------

This is played very slowly, but you can double the speed and play each bar twice.


Rest [0:00]


Verse [0:30] - Play twice
G|----------------|----------------|      G|----------------|----------------|
D|--------7~--7~--|--------7~------|      D|--------10~-10~-|--------10~-----|
A|----------------|----------------| x2   A|----------------|----------------| x2
E|5~----5---------|5~----5---------|      E|8~----8---------|8~----8---------|


Pre-Chorus [0:50] - Play twice
G|--------10~-10~-|--------10~-----|--------12~-12~-|--------12~-12~-|
D|----------------|----------------|----------------|----------------|
A|8~----8---------|8~----8---------|10~---10--------|10~---10--------|
E|----------------|----------------|----------------|----------------|

G|--------14~-14~-|--------14~-----|--------14~-14~-|--------14~-----|
D|----------------|----------------|----------------|----------------|
A|12~---12--------|12~---12--------|12~---12--------|12~---12--------|
E|----------------|----------------|----------------|----------------|


Chorus [1:11]
G|----------------|----------------|      G|--------10~-10~-|--------10~-----|
D|--------10~-10~-|--------10~-----|      D|----------------|----------------|
A|----------------|----------------| x6   A|8~----8---------|8~----8---------|
E|8~----8---------|8~----8---------|      E|----------------|----------------|

G|--------8~--8~--|--------8~------|--------10~-10~-|--------10~-----|
D|----------------|----------------|----------------|----------------|
A|6~----6---------|6~----6---------|8~----8---------|8~----8---------|
E|----------------|----------------|----------------|----------------|

G|----------------|----------------|      G|----------------|----------------|
D|--------10~-10~-|--------10~-----|      D|----------------|----------------|
A|----------------|----------------| x2   A|--- * Rest * ---|--- * Rest * ---|
E|8~----8---------|8~----8---------|      E|----------------|----------------|


Verse [1:42]


Pre-Chorus [2:03]


Chorus [2:23]


Rest [2:54]




-------------------------------------------------------------------------------?
                           10. Hyper Chondriac Music                           
-------------------------------------------------------------------------------

Rest [0:00]


[1:53]
G|----------------|----------------|----------------|----------------|
D|----------------|----------------|----------------|----------------|
A|----------------|----------------|----------------|----------------| x4
D|5~--------------|0~--------------|10~-------------|----------------|


[2:49]
G|----------------|----------------|----------------|----------------|
D|----------------|----------------|----------------|----------------|
A|----------------|----------------|----------------|----------------| x8
E|5-5-5-5-5-5-5-5-|0-0-0-0-0-0-0-0-|1010101010101010|1010101010101010|

G|----------------|
D|----------------|
A|----------------|
E|5~--------------|


Rest [4:18]
comments
We did not receive enough feedback on this tab! Please rate:
print report bad tab
1 2 3 4 5
I want to post or [tab]
guest
You may want to rate the tab now too:
select rating
Please do not post tabs as comments. Select "correction" instead!