Oops, an error
Loading. Please wait.

Hullabaloo Part 1 Tab

by Muse
9,737 views 9 this week
1 commentread comment
1 2 3 4 5
accurate
x 4
add to favorites launch autoscroll
font size
0
reset
Autoscroll
+/-
esc
set tempo
stop
Contributor
WARNING: You are trying to view
                                    content from Ultimate-Guitar.com
                                    in an unauthorized application,
                                    which is prohibited.

                                    Please use an official Ultimate
                                    Guitar Tabs application for iPhone,
                                    iPad or Android to access legitimate
                                    chords, guitar, bass, and drum tabs
                                    from Ultimate-Guitar.com database.

                                    Type "ultimate guitar tabs" in Apple
                                    App Store's or Android Market's
                                    search to find the application.
This Not My Work It is other people's Tabs i have put together 

1. Forced In

E------------------|
B------------------|
G--4--------4^/2---|
D------------------|
A------------------|
E------------------|

Use a whammy bar on the G string(2)
Verse

E-------------------|R
B-------------------|E
G-----2-------2-----|A
D-------------------|P
A---3-------4-------|E
E-1-------2---------|T

Chorus
E----------------------------------------|R
B----------------------------------------|E
G---4-----4-----4------4-----4-----4-----|A
D-----2-----2------------0-----0---------|P
A-0-----0-----0--------------------------|E
E--------------------3-----3-----3-------|T

DONT FORGET ABOUT THE WHAMMY BAR!
E------------------|
B------------------|
G-----2-------2----|
D------------------|
A---3-------4------|
E-1-------2--------|

End verses
E--------------------|
B-------0------------|
G-----5---------5----|
D--------------------|
A---7---------6------|
E-5---------4--------|

E--------------------|
B-------0------------|
G-----5---------5----|
D--------------------|
A---7---------6------|
E-5---------4--------|

E--------------------|
B-------0------------|
G-----5---------5----|
D--------------------|
A---7---------6------|
E-5---------4--------|

E--------------------|
B---------------0----|
G-----5--------------|
D-------0------------|
A---7---------6------|
E-5---------4--------|

E----------------------|
B---------0------------|
G-----4----------------|
D-------6---------7----|
A---7-----------6------|
E-5-----------4--------|

2.Shrinking Universe

intro:
e|-----------0-----------0---|
B|-------0-----------0-------|
G|-----5---5-------5---5-----|
D|---7-----------7-----------|
A|---------------------------|
E|---------------------------|

verse:
e|-----------0--------------0--------------0--------------0---|
B|-------0--------------6--------------3--------------6-------|
G|-----5---5----------7---7----------4---4----------5---5-----|
D|---7--------------9--------------6--------------7-----------|
A|------------------------------------------------------------|
E|------------------------------------------------------------|

chorus:
e|------------12------------12-10------------0----------12-10----------0--|
B|-------10--------------10--------------6-----------10------------0------|
G|-----9----9---------10---------------7---7------10-------------5---5----|
D|--11--------------0----------------9----------0--------------7----------|
A|------------------------------------------------------------------------|
E|------------------------------------------------------------------------|

repeat verse then chorus...

bridge: (juzt play the notez of d chordz here...)
e|-----------5---7---|
B|-----------7---9---|
G|---1---5---5---7---|
D|---2---7---7---9---|
A|---2---7---5---7---|
E|---0---5---5---7---|

then...
e|---0--------------|
B|---1-------1--1---|
G|---2---1---0--0---|
D|---2---2---2--2---|
A|---0---2---3--4---|
E|-------0----------|

then...
e|--------------------------|
B|---2--2---6-------6-------|
G|---2--2---7---1---7-------|
D|---2--2---7---2---7---7---|
A|---0--4---5---2---5---7---|
E|--------------0-------5---|

chorus:
e|--------------------------|
B|---2--2---6-------6-------|
G|---2--2---7---1---7-------|
D|---2--2---7---2---7---7---|
A|---0--4---5---2---5---7---|
E|--------------0-------5---|

3. Recess

Tuning: Standard

Key:
sl= slide

Intro:
------------------------------------------------|
-13----------13----------13----------13---------|
----16----16----16----16----16----16----16----16...
-------14----------14----------14----------14---|
------------------------------------------------|
------------------------------------------------|


---------------------------------------------------------------|
-15----------15----------15----------15----------13----------13...
----16----16----16----16----16----16----16----16----16----16---|
-------15----------15----------15----------15----------14------|
---------------------------------------------------------------|
---------------------------------------------------------------|


Riff 1: (x 2)

-sl-----------------------------------------sl-----------------|
-16-17--------------------------------------16-17--------------|
-------15-16-12-13--------------12-13-15-16-------16-17-13-14--|
--------------------13-14-13-14--------------------------------|
---------------------------------------------------------------|
---------------------------------------------------------------|


---------------------------------------------------------------|
---------------------------------------------------------------|
-------------13-14-16-17---------------------------------------|
-13-14-13-14---------------------------------------------------|
---------------------------------------------------------------|
---------------------------------------------------------------|


---------------------------------------------------------------|
-1-1-----------------------------------------------------------|
-2-2-------14-13------------2-1--------------------------------|
-2-2----14-------15-------2-----3------------------------------|
-0-0-----------------------------------------------------------|
---------------------------------------------------------------|


Repeat Riff 1 4 times


End: 
---------------------------------------------------------------|
-18-18-18-18-17-17-17-17-18-18-18-18-17-17-17-17-18-18-20-20---|
---------------------------------------------------------------|
---------------------------------------------------------------|
---------------------------------------------------------------|
---------------------------------------------------------------|


---------------------------------------------------------------|
-21-21-21-21-22------------------------------------------------|
---------------------------------------------------------------|
---------------------------------------------------------------|
------------------------------------------2-2---2--------------|
--------------------------------------0-0-----0----------------|

4. Yes Please

Tuning: Drop D


Intro:
|---------------------------------|---------------------------------|
|---------------------------------|---------------------------------|
|---------------------------------|---------------------------------|
|-0-0-0-0-0-0-0-0-0-0-0-0-0-0-0-0-|-0-0-0-0-0-0-0-0-0-0-0-0-0-0-0-0-|
|---------------------------------|-----------------0-0-0-0-0-0-0-0-|
|---------------------------------|---------------------------------|

|---------------------------------|---------------------------------|
|-3-3-3-3-3-3-3-3-5-5-5-5-5-5-5-5-|-6-6-6-6-6-6-6-6-6-6-6-6-6-6-6-6-|
|-2-2-2-2-2-2-2-2-3-3-3-3-3-3-3-3-|-3-3-3-3-3-3-3-3-3-3-3-3-3-3-3-3-|
|-0-0-0-0-0-0-0-0-0-0-0-0-0-0-0-0-|-0-0-0-0-0-0-0-0-0-0-0-0-0-0-0-0-|
|---------------------------------|---------------------------------|
|---------------------------------|---------------------------------|

|---------------------------------|---------------------------------|
|-3-3-3-3-3-3-3-3-5-5-5-5-5-5-5-5-|-6-6-6-6-6-6-6-6-6-6-6-6-6-------|
|-2-2-2-2-2-2-2-2-3-3-3-3-3-3-3-3-|-3-3-3-3-3-3-3-3-3-3-3-3-3-------|
|-0-0-0-0-0-0-0-0-0-0-0-0-0-0-0-0-|-0-0-0-0-0-0-0-0-0-0-0-0-0-------|
|---------------------------------|---------------------------4-4-0-|
|---------------------------------|---------------------------4-4-0-|

|-------------------------------------------------------------------|
|-------------------------------------------------------------------|
|-------------------------------------------------------------------|
|-------------------------------------------------------------------|
|-3-4-5-----------3-4-5-----------3-4-5-----------------------------|
|-------0-3-4-5-0-------0-3-4-5-0-------0-3-4-5-0-(repeat lots)-----|


Verse:
|-----------------|-----------------|-----------------|
|-----------------|-----------------|-----------------|
|-----------------|-----------------|-----------------|
|-0-3-4-5---------|---3-4-5---------|---3-4-5---------|
|-----------3-4-5-|-5---------3-4-5-|-5---------3-4-5-|
|---------5-------|---------5-------|---------5-------|

|-----------------|-----------------|-----------------|
|-----------------|-----------------|-----------------|
|-----------------|-----------------|-----------------|
|---3-4-5---------|-----------------|-----------------|
|-5---------3-4-5-|-----------3-4-5-|-----------3-4-5-|
|---------5-------|-0-3-4-5-0-------|-0-3-4-5-0-------|

|-----------------|-----------------|
|-----------------|-----------------|
|-----------------|-----------------|
|-----------------|-----------------|
|-----------3-4-5-|-----------3-4-5-|
|-0-3-4-5-0-------|-0-3-4-5-0-------|


Chorus:
|-------------|-------------|-----------------|
|-----------6-|-----------6-|-----------------|
|-----------5-|-----------5-|-----------------|
|-------------|-------------|-----------------|
|-0-3-5b6p0---|-0-3-5b6p0---|-3-0-3-0-3-0-3-0-|
|-0-3-5b6p0---|-0-3-5b6p0---|-3-0-3-0-3-0-3-0-|


Chorus continued (play 3 times)
|---------------------------------|---------------------------------|
|-3-3-3-3-3-3-3-3-5-5-5-5-5-5-5-5-|-6-6-6-6-6-6-6-6-6-6-6-6-6-6-6-6-|
|-2-2-2-2-2-2-2-2-3-3-3-3-3-3-3-3-|-3-3-3-3-3-3-3-3-3-3-3-3-3-3-3-3-|
|-0-0-0-0-0-0-0-0-0-0-0-0-0-0-0-0-|-0-0-0-0-0-0-0-0-0-0-0-0-0-0-0-0-|
|---------------------------------|---------------------------------|
|---------------------------------|---------------------------------|


Chorus continued
|---------------------------------|---------------------------------|
|-3-3-3-3-3-3-3-3-5-5-5-5-5-5-5-5-|-6-6-6-6-6-6-6-6-6---------------|
|-2-2-2-2-2-2-2-2-3-3-3-3-3-3-3-3-|-3-3-3-3-3-3-3-3-3---------------|
|-0-0-0-0-0-0-0-0-0-0-0-0-0-0-0-0-|-0-0-0-0-0-0-0-0-0---------------|
|---------------------------------|---------------------------4-4-0-|
|---------------------------------|---------------------------4-4-0-|


                                    Repeat verse, Repeat chorus
|------------------------------|--------------------------|---|
|------------------------------|--------------------------|---|
|------------------------------|--------------------------|-6-|
|------------------------------|--------------------------|-5-|
|-3-4-5------------------------|--------------------------|---|
|-------0-3-4-5-0-(repeat lots)|--------------------------|---|

5. Map Of Your Head

Standard Tuning

Verse/Chorus:
                    
e|----9--9-----------5-5-7---------|
B|----10---10---10---7-6-----------|
G|----9-------9------7-7-----------|
D|------------------0--------------|
A|--0------------------------------|
E|---------------------------------|

   
e|----9--9-------------0--0----------2--2-----------5-5-7----|
B|----10---10---10-----0----0---0----2----2---------7-6------|
G|----9-------9--------1------1------2------2-------7-7------|
D|---------------------2-------------4--------4---0----------|
A|--0------------------2-------------4-----------------------|
E|-------------------0-------------2-------------------------|

6. Nature 1 

Tuning: Standard


Intro:
|-0----0-0-0----0----0-0-0----0-0-|-0----0-0-0----0----0-0-0----0-0-|
|-2----2-2-2----2----2-2-2----0-2-|-3----3-3-3----3----3-3-3----3-0-|
|-2----2-2-2----2----2-2-2----2-2-|-3----3-3-3----3----3-3-3----3-0-|
|---------------------------------|---------------------------------|
|---------------------------------|---------------------------------|
|---------------------------------|---------------------------------| (x4)


Verse:
|-0----0-0-0----0----0-0-0----0-0-|-3----3-3-3----3----3-3-3----3-3-|
|-2----2-2-2----2----2-2-2----0-2-|-3----3-3-3----3----3-3-3----3-3-|
|-2----2-2-2----2----2-2-2----2-2-|-3----3-3-3----3----3-3-3----3-3-|
|-2----2-2-2----2----2-2-2----2-2-|-5----5-5-5----5----5-5-5----5-5-|
|-0----0-0-0----0----0-0-0----0-0-|-5----5-5-5----5----5-5-5----5-5-|
|---------------------------------|-3----3-3-3----3----3-3-3----3-3-| 


Guitar 2:
|----------------|----------------|----------------|----------------|
|----------------|----------------|----------------|----------------|
|-2--------------|-3--------------|-6--------------|-7--------------|
|----------------|----------------|----------------|----------------|
|----------------|----------------|----------------|----------------|
|----------------|----------------|----------------|----------------|


|----------------|----------------|----------------|----------------|
|----------------|----------------|----------------|----------------|
|-9--------------|-7----6------3--|-2--------------|-3--------------|
|----------------|----------------|----------------|----------------|
|----------------|----------------|----------------|----------------|
|----------------|----------------|----------------|----------------|


Chorus:
|-5--------------|-3--------------|-5--------------|-3--------------|
|-7--------------|-3--------------|-7--------------|-3--------------|
|-7--------------|-3--------------|-7--------------|-3--------------|
|-7--------------|-5--------------|-7--------------|-5--------------|
|-5--------------|-5--------------|-5--------------|-5--------------|
|----------------|-3--------------|----------------|-3--------------|


|-5--------------|-3--------------|-5--------------|-3--------------|
|-7--------------|-3--------------|-7--------------|-3--------------|
|-7--------------|-3--------------|-7--------------|-3--------------|
|-7--------------|-5--------------|-7--------------|-5--------------|
|-5--------------|-5--------------|-5--------------|-5--------------|
|----------------|-3--------------|----------------|-3--------------|


|-2--------------|-2--------------|-2--------------|-3--------------|
|-2--------------|-2--------------|-3--------------|-3--------------|
|-3--------------|-3--------------|-4--------------|-3--------------|
|-4--------------|-4--------------|-4--------------|-5--------------|
|-4--------------|-4--------------|-2--------------|-5--------------|
|-2--------------|-2--------------|----------------|-3--------------|


|-2--------------|-2--------------|-2--------------|-3--------------|
|-2--------------|-2--------------|-3--------------|-3--------------|
|-3--------------|-3--------------|-4--------------|-3--------------|
|-4--------------|-4--------------|-4--------------|-5--------------|
|-4--------------|-4--------------|-2--------------|-5--------------|
|-2--------------|-2--------------|----------------|-3--------------|


|-2--------------|-2--------------|-2--------------|-3--------------|
|-2--------------|-2--------------|-3--------------|-3--------------|
|-3--------------|-3--------------|-4--------------|-3--------------|
|-4--------------|-4--------------|-4--------------|-5--------------|
|-4--------------|-4--------------|-2--------------|-5--------------|
|-2--------------|-2--------------|----------------|-3--------------|


|-2--------------|-2--------------|-2--------------|-2--------------|
|-2--------------|-2--------------|-3--------------|-3--------------|
|-3--------------|-3--------------|-4--------------|-4--------------|
|-4--------------|-4--------------|-4--------------|-4--------------|
|-4--------------|-4--------------|-2--------------|-2--------------|
|-2--------------|-2--------------|----------------|----------------|


Interlude:
|----------------|----------------|----------------|----------------|
|----------------|----------------|----------------|----------------|
|----------------|----------------|----------------|----------------|
|----------------|----------------|----------------|----------------|
|----------------|----------------|----------------|----------------|
|-5-5-7b8-5-7b8--|-3-3-5b6-3-5b6--|-5-5-7b8-5-7b8--|-3-3-5b6-3-5b6--|


|----------------|----------------|----------------|----------------|
|----------------|----------------|----------------|----------------|
|----------------|----------------|----------------|----------------|
|----------------|----------------|----------------|----------------|
|----------------|----------------|----------------|----------------|
|-5-5-7b8-5-7b8--|-3-3-5b6-3-5b6--|-5-5-7b8-5-7b8--|-3-3-5b6-3-5b6--|


Guitar 1 (Use strumming pattern again)
|-0--------------|-3--------------|-0--------------|-3--------------|
|-2--------------|-3--------------|-2--------------|-3--------------|
|-2--------------|-3--------------|-2--------------|-3--------------|
|-2--------------|-5--------------|-2--------------|-5--------------|
|-0--------------|-5--------------|-0--------------|-5--------------|
|----------------|-3--------------|----------------|-3--------------|


Guitar 2:
|----------------|----------------|----------------|----------------|
|-2--------------|-3--------------|-5--------------|-6-----5-----3--|
|----------------|----------------|----------------|----------------|
|----------------|----------------|----------------|----------------|
|----------------|----------------|----------------|----------------|
|----------------|----------------|----------------|----------------|


Guitar 1:
|-0--------------|-3--------------|-0--------------|-3--------------|
|-2--------------|-3--------------|-2--------------|-3--------------|
|-2--------------|-3--------------|-2--------------|-3--------------|
|-2--------------|-5--------------|-2--------------|-5--------------|
|-0--------------|-5--------------|-0--------------|-5--------------|
|----------------|-3--------------|----------------|-3--------------|


Guitar 2:
|----------------|----------------|----------------|----------------|
|-5-----3-----2--|-3-----2--------|----------------|----------------|
|----------------|-------------3--|-2--------------|-3--------------|
|----------------|----------------|----------------|----------------|
|----------------|----------------|----------------|----------------|
|----------------|----------------|----------------|----------------|


Guitar 1:
|-0-0--0-0--0-0--0-0-|-0-0-------------|
|-2-2--2-2--2-2--2-2-|-3-3-------------|
|-2-2--2-2--2-2--2-2-|-3-3-------------|
|-2-2--2-2--2-2--2-2-|-3-3-------------|
|-0-0--0-0--0-0--0-0-|-0-0-------------|
|--------------------|-----------------|

7. Shine Acoustic

Only Tab Could Find

C Dm G7
Who-o cares for the life we've earned?

C Dm G7
someone's sold all the truth you yearned

Am G Fmaj7 G C C/B Am G
remember when we used to shine

Fmaj7 G Am G C
and had no fear or sense of time

C C+ C6 C+
(it creeps up on you)


C Dm G7
you can't cry now there's nothing to fear

C Dm G7
and no one's noticed our loneline - ess

Am G Fmaj7 G C C/B Am G
remember when you used to tease

Fmaj7 G Am G C
and made us scream eternal time


C Dm G7
I believe that you'll always be here

C Dm G7
cos once you promised a life with no fear

Am G Fmaj7 G C C/B Am G
please don't break my ideals

Fmaj7 G Am G C C+ C6 C
and say what's fake was always re - al


Am G Fmaj7 G C C/B Am G
I was the one, no longer (whooo)

Fmaj7 G Am C
take me back again

8. Ashamed

Intro:
-X-X-X-X-X-X-X-X-X-X-X-X-X-X-X-X-X-X-X-X-X-X-X-X-X-X-X-X-X-X-----||
-X-X-X-X-X-X-X-X-X-X-X-X-X-X-X-X-X-X-X-X-X-X-X-X-X-X-X-X-X-X-----||
-X-X-X-X-X-X-X-X-X-X-X-X-X-X-X-X-X-X-X-X-X-X-X-X-X-X-X-X-X-X-----||
-----------------------------------------------------------------||
-----------------------------------------------------------------||
-------------------------------------------------------------12\-||


-12121212-||    |-----||
-12121212-||    |-----||
----------||X 7 |-----||
----------||    |-----||
----------||    |-----||
----------||    |-12\-||


Gtr. 1:       
-----2---------2---|----2---------2---|-----5---------5---|----5---------5---|*\
-----2---------2---|----2---------2---|-----5---------5---|----5---------5---|* N. H.
-----2---------2---|----2---------2---|-----5---------5---|----5---------5---|*/
-------------------|------------------|-------------------|------------------|
--------2--2h3-----|-------2--2h3-----|--------2--2h3-----|-------2--2h3-----|
-2-----------------|-2----------------|-2-----------------|-2----------------|


-----2---------2---|----2---------2---|-----2---------2---|----2---------2---|*\
-----2---------2---|----2---------2---|-----2---------2---|----2---------2---|* Gtr. 2 N.H.
-----2---------2---|----2---------2---|-----2---------2---|----2---------2---|*/
-------------------|------------------|-------------------|------------------|
-----0--2--2h3-2-0-|----0--2--2h3-2-0-|-----0--2--2h3-2-0-|----0--2--2h3-2-0-|+ Gtr. 1
-2-----------------|-2----------------|-2-----------------|-2----------------|+


-----5---------5---|----5---------5---|-----5---------5---|----5---------5---|*\
-----5---------5---|----5---------5---|-----5---------5---|----5---------5---|* Gtr. 2 N.H.
-----5---------5---|----5---------5---|-----5---------5---|----5---------5---|*/
-------------------|------------------|-------------------|------------------|
-----0--2--2h3-2-0-|----0--2--2h3-2-0-|-----0--2--2h3-2-0-|----0--2--2h3-2-0-|+ Gtr. 1
-2-----------------|-2----------------|-2-----------------|-2----------------|+


Gtr. 2 (tacet)
Gtr. 1 (long slide)
----------------||
----------------||
----------------||
-4-////16-------||
-4-////16-------||
-2-////14-------||


Pre-verse:
-----------------|-----------------|-----------------|-----------------|
-----------------|-----------------|-----------------|-----------------|
-----------------|-----------------|-----------------|-----------------|
-----------------|-----------------|-----------------|-----------------|
-0---------------|-0-----------0-2-|-3-------------0-|-2----0------0---|
-----------------|-----------------|-----------------|-----------------|


-----------------|-----------------|-----------------|-----------------|
-----------------|-----------------|-----------------|-----------------|
-----------------|-----------------|-----------------|-----------------|
-------------2---|-4---------------|-----------------|-----------------|
-0---0---3-------|-------------0-2-|-3---------------|-2----0----------|
-----------------|-----------------|-----------------|-----------------|


Verse 1:                                  
-----------------|-----------------|-----------------|-----------------|
?----------------|-----------------|-----------------|----------------?|
-----------------|-----------------|-5-555-555-555-55|-5-555-555-555-55|
-----------------|-----------------|-----------------|-----------------|
?0---------------|-0---------------|-----------------|----------------?|
-----------------|-----------------|-----------------|-----------------|
 
  
Pre- chorus:
-----------------|-----------------|-----------------|-----------------|
-----------------|-----------------|-----------------|-----------------|
-6-666-666-666-66|-8-888-888-888-88|-9-999-999-999-99|-8-888-888-888-88|
-----------------|-----------------|-----------------|-----------------|
-----------------|-----------------|-----------------|-----------------|
-----------------|-----------------|-----------------|-----------------|


-----------------|-----------------|-----------------|-----------------|
-----------------|-----------------|-----------------|-----------------|
-6-666-666-666-66|-8-888-888-888-88|-9-999-999-999-99|-6--6--4---------|
-----------------|-----------------|-----------------|-----------------|
-----------------|-----------------|-----------------|-----------------|
-----------------|-----------------|-----------------|-----------------|


Chorus:
e|-----9999999999----|Gtr. 3 (dist)


-----2---------2---|----2---------2---|-----2---------2---|----2---------2---|*\
-----2---------2---|----2---------2---|-----2---------2---|----2---------2---|* Gtr. 2 N.H.
-----2---------2---|----2---------2---|-----2---------2---|----2---------2---|*/
-------------------|------------------|-------------------|------------------|
-----0--2--2h3-2-0-|----0--2--2h3-2-0-|-----0--2--2h3-2-0-|----0--2--2h3-2-0-|+ Gtr. 1
-2-----------------|-2----------------|-2-----------------|-2----------------|+


e|-----9999999999----|Gtr. 3 


-----5---------5---|----5---------5---|-----5---------5---|----5---------5---|*\
-----5---------5---|----5---------5---|-----5---------5---|----5---------5---|* Gtr. 2 N.H.
-----5---------5---|----5---------5---|-----5---------5---|----5---------5---|*/
-------------------|------------------|-------------------|------------------|
-----0--2--2h3-2-0-|----0--2--2h3-2-0-|-----0--2--2h3-2-0-|----0--2--2h3-2-0-|+ Gtr. 1
-2-----------------|-2----------------|-2-----------------|-2----------------|+


Gtr. 2 (tacet)
Gtr. 3 (tacet)
Gtr. 1 (long slide)
----------------||
----------------||
----------------||
-4-////16B------||
-4-////16B------||
-2-////14B------||

  
Verse 2:
-----------------|-----------------|-----------------|-----------------|
?----------------|-----------------|-----------------|----------------?|
-2---------------|-2---------------|-5-555-555-555-55|-5-555-555-555-55|
-----------------|-----------------|-----------------|-----------------|
?----------------|-----------------|-----------------|----------------?|
-----------------|-----------------|-----------------|-----------------|


Pre-chorus:
-----------------|-----------------|-----------------|-----------------|
-----------------|-----------------|-----------------|-----------------|
-6-666-666-666-66|-8-888-888-888-88|-9-999-999-999-99|-8-888-888-888-88|
-----------------|-----------------|-----------------|-----------------|
-----------------|-----------------|-----------------|-----------------|
-----------------|-----------------|-----------------|-----------------|


-----------------|-----------------|-----------------|-----------------|
-----------------|-----------------|-----------------|-----------------|
-6-666-666-666-66|-8-888-888-888-88|-9-999-999-999-99|-6--6--4---------|
-----------------|-----------------|-----------------|-----------------|
-----------------|-----------------|-----------------|-----------------|
-----------------|-----------------|-----------------|-----------------|


Chorus:
e|-----9999999999----|Gtr. 3 (dist)


-----2---------2---|----2---------2---|-----2---------2---|----2---------2---|*\
-----2---------2---|----2---------2---|-----2---------2---|----2---------2---|* Gtr. 2 N.H.
-----2---------2---|----2---------2---|-----2---------2---|----2---------2---|*/
-------------------|------------------|-------------------|------------------|
-----0--2--2h3-2-0-|----0--2--2h3-2-0-|-----0--2--2h3-2-0-|----0--2--2h3-2-0-|+ Gtr. 1
-2-----------------|-2----------------|-2-----------------|-2----------------|+


e|-----9999999999----|Gtr. 3 


-----5---------5---|----5---------5---|-----5---------5---|----5---------5---|*\
-----5---------5---|----5---------5---|-----5---------5---|----5---------5---|* Gtr. 2 N.H.
-----5---------5---|----5---------5---|-----5---------5---|----5---------5---|*/
-------------------|------------------|-------------------|------------------|
-----0--2--2h3-2-0-|----0--2--2h3-2-0-|-----0--2--2h3-2-0-|----0--2--2h3-2-0-|+ Gtr. 1
-2-----------------|-2----------------|-2-----------------|-2----------------|+


Bridge: Gtr. 3 (tacet)
Gtr. 1
-17----17------17------19------20------20------21------21-------|
-----18----18------18------18------18------18-------------------|
---19----19--19--19--19--19--19--19--19--19--19--191919--191919-|
----------------------------------------------------------------|
----------------------------------------------------------------|
----------------------------------------------------------------|
| Gtr. 2
----------------------------------------------------------------|
----------------------------------------------------------------|
----------------------------------------------------------------|
-4\-----------4\--------------4\--------------4\-/--------------|
-4\-----------4\--------------4\--------------4\-/--------------|
-2\-----------2\--------------2\--------------2\-/--------------|

Gtr. 1
----------------------------------|
----------------------------------|
-19191919191919191919191919191919-|
----------------------------------|
----------------------------------|
----------------------------------|\
|Gtr. 2                              X 2
----------------------------------|/
----------------------------------|
----------------------------------|
-4\-------------------------------|
-4\-------------------------------|
-2\-------------------------------|


   Gtr. 1
-21212121212121212121212121212121-|
----------------------------------|
----------------------------------|
----------------------------------|
----------------------------------|
----------------------------------|
|Gtr. 2                              
----------------------------------|
----------------------------------|
----------------------------------|
-4\-------------------------------|
-4\-------------------------------|
-2\-------------------------------|


Solo:
Gtr. 1 (riff 1)
-----------------|
-----------------|
-----------------|
-----------------|
---------2-------|
-2-0-1-2---0-1-2-|
|Gtr. 2                                     
-----------------|
-----------------|
-----------------|
-4---------------|
-4---------------|
-2---------------|


Gtr. 1 (w/Riff 1 X 8)
Gtr. 2
----------------|
-14141414141414-|
----------------|
----------------|X 8
----------------|
----------------|


Gtr. 1 (w/ Riff 1)
Gtr. 2
------------------|------------------|------------------|------------------|
?-----------------|------------------|------------------|-----------------?|
-16XX16XX16XX16XX-|-17XX17XX17XX17XX-|-18XX18XX18XX18XX-|-18XX18XX18XX18XX-|
------------------|------------------|------------------|------------------|
?-----------------|------------------|------------------|-----------------?|
------------------|------------------|------------------|------------------|


Gtr. 1 (w/ Riff 1)
Gtr. 2
-19XX19XX19XX19XX-|-20XX20XX20XX20XX-|-21XX21XX21XX21XX-|-21XX21XX21XX21XX-|
?-----------------|------------------|------------------|-----------------?|
-16XX16XX16XX16XX-|-17XX17XX17XX17XX-|-18XX18XX18XX18XX-|-18XX18XX18XX18XX-|
------------------|------------------|------------------|------------------|
?-----------------|------------------|------------------|-----------------?|
------------------|------------------|------------------|------------------|


Outro:
Gtr. 1 (w/ Riff 1)
Gtr. 2
-19XX19XX19XX19XX-|-20XX20XX20XX20XX-|-21XX21XX21XX21XX-|-21XX21XX21-------|
?-----------------|------------------|------------------|-----------------?|
-16XX16XX16XX16XX-|-17XX17XX17XX17XX-|-18XX18XX18XX18XX-|-18XX18XX18-------|
------------------|------------------|------------------|------------------|
?-----------------|------------------|------------------|-----------------?|
------------------|------------------|------------------|------------------|
                                                         Gtr. 1
                                                         ------------------|
                                                         ------------------|
                                                         ------------------|
                                                         ------------------|
                                                         ---------2--------|
                                                         -2-0-1-2---2\-----|

9. The Gallery


Intro/Verse:
|-----------10--------------|
|--10-12-13----13-12-10-----|
|-----------------------12--|
|---------------------------|
|---------------------------|
|---------------------------|


Then change to:
|--5--7--8--10--8--7--5-----|
|------------------------8--|
|---------------------------|
|---------------------------|
|---------------------------|
|---------------------------|


|--x--|--0--|--2--|--3--|
|--0--|--1--|--3--|--3--|
|--1--|--0--|--2--|--0--|
|--2--|--2--|--0--|--0--|
|--2--|--3--|--x--|--x--|
|--0--|--x--|--x--|--3--|

10. Hyper Chondriac Music

Guitar I

    Gm              Dm              C               Cm

e|--3-3-3-3-3-3-3-3-5-5-5-5-5-5-5-5-----------------3-3-3-3-3-3-3-3---------------|
a|--3-3-3-3-3-3-3-3-6-6-6-6-6-6-6-6-5-5-5-5-5-5-5-5-4-4-4-4-4-4-4-4---------------|
d|--3-3-3-3-3-3-3-3-7-7-7-7-7-7-7-7-5-5-5-5-5-5-5-5-5-5-5-5-5-5-5-5---------------|
g|--5-5-5-5-5-5-5-5-7-7-7-7-7-7-7-7-5-5-5-5-5-5-5-5-5-5-5-5-5-5-5-5---------------|
b|--5-5-5-5-5-5-5-5-5-5-5-5-5-5-5-5-3-3-3-3-3-3-3-3-3-3-3-3-3-3-3-3---------------|
E|--3-3-3-3-3-3-3-3---------------------------------------------------------------|

Keep repeating this all the way through.

Guitar II joins in with the following at 0:28

    Gm                Dm                C                Cm

e|----------------------0-----------------0-------------------------------------|
a|---------3--------------3-----------------3------5--3-------------------------|
d|-------3------------0-----2-----------0-----2----------5p3p2------------------|
g|-----5----------------------3-----------------3--------------5----------------|
b|---5--------------------------3-----------------------------------------------|
E|------------------------------------------------------------------------------|

    Gm                Dm                C                Cm

e|----------------------0-----------------0-------------------------------------|
a|---------3--------------3-----------------3------5--3-------------------------|
d|-------3------------0-----2-----------0-----2----------5p3p2------------------|
g|-----5----------------------3-----------------3--------------5----------------|
b|---5--------------------------3-----------------------------------------------|
E|------------------------------------------------------------------------------|

After playing this twice, at 0:55 Guitar II stops and Matt starts singing, Guitar I 
playing.

This solo starts at 2:49

     Gm               Dm               C               Cm

e|--------------------------------------------------------------------|
a|----------------------------------------------3------3--3---3---3---|
d|-----------------------------------------2-3---------3----3---3-3---|
g|--------------------------------------------------------------------|
b|--9--------10-9-8--------------6-5-3--------------------------------|
E|-----0-0------------------0-0---------------------------------------|

     Gm               Dm               C               Cm

e|--------------------------------------------------------------------|
a|--------------------------------------3----3------15----15----15----|
d|------------------------------------3--3---3/15----15----15---------|
g|--------------------------------------------------------------------|
b|--9-----------10-9-8----/15\--6-5-3---------------------------------|
E|--------------------------------------------------------------------|

     Gm

e|------------------------------------------------------|
a|--15----15----15----15----13----13----11----11----10--|
d|-----15----15----15----15----14----14----12----12-----|
g|------------------------------------------------------|
b|------------------------------------------------------|
E|------------------------------------------------------|

   Dm                      Tremolo Picking

e|------------------------------------------|
a|-10----10----10----10-10/////-11/////-----|
d|----10----10----10----10/////-12/////-----|
g|------------------------------------------|
b|------------------------------------------|
E|------------------------------------------|

   C   Tremolo Picking

e|--------------------------------------------------------------|
a|-13///////////////////////////////---10-10----10----10--------|
d|-12///////////////////////////////---10----10----10-10--------|
g|--------------------------------------------------------------|
b|--------------------------------------------------------------|
E|--------------------------------------------------------------|

   Cm

e|--------------------------------------------------------------|
a|-10-------10----10----10-------10--------15----15----15-------|
d|----10/12----12----12----12-12----12/15-----15----15----------|
g|--------------------------------------------------------------|
b|--------------------------------------------------------------|
E|--------------------------------------------------------------|

   Gm            Dm             C           Cm

e|--------------------------------------------------------------|
a|-15/////-------13/////------11/////------10/////--10-10-10/15-|
d|-15/////-------14/////------12/////------10/////--10-10-10/15-|
g|--------------------------------------------------------------|
b|--------------------------------------------------------------|
E|--------------------------------------------------------------|

The solo ends and Matt starts singing the chorus at 3:44

The outro is the rhythm guitar still playing Gm,Dm,C and Cm

Chords:

The chords are labelled above the writing exactly where that chord should start.

            Gm   Dm      C     Cm
Your golden lies feed my role

                  Gm         Dm          C       Cm
In this forgotten space race under my control

 Gm Dm   C                   Cm
Who's returned from the dead?

Gm Dm     C     Cm
Who remains?


           Gm  Dm             C   Cm
You wanted more than I was worth

                Gm     Dm
You think I was scared yeah

               C       Cm
And you needed proof

Gm Dm      C              Cm
Who really cares anymore?

Gm Dm  C  Cm
Who restrains?

comments
print report bad tab
1 comment total.
0 reply
hak_hap wrote on August 18 2009, 02:36 pm

none of this is yours?? thats really poor and im feeling sorry for giving five stars that this tab techniqually deserves. shame on you and heres your five stars!!

I want to post or [tab]
guest
You may want to rate the tab now too:
select rating
Please do not post tabs as comments. Select "correction" instead!