Oops, an error
Loading. Please wait.

Hysteria Tab

by Muse
13,864 views 1 this week
3 commentsread comments
1 2 3 4 5
accurate
x 6
Autoscroll
+/-
esc
set tempo
stop
Contributor
Hey! There's an official Ultimate Guitar app which is ideal
for learning songs when you're away from computer. Get the app
WARNING: You are trying to view
                                    content from Ultimate-Guitar.com
                                    in an unauthorized application,
                                    which is prohibited.

                                    Please use an official Ultimate
                                    Guitar Tabs application for iPhone,
                                    iPad or Android to access legitimate
                                    chords, guitar, bass, and drum tabs
                                    from Ultimate-Guitar.com database.

                                    Type "ultimate guitar tabs" in Apple
                                    App Store's or Android Market's
                                    search to find the application.
This is my tab, I think this is pretty much completly right. Its a 
compromise of what Matt Bellamy does live and what I PERSONALLY can 
hear. I have done this tab a bar at a time, which should make things
easier for you.


KEY

|1---------2---------3---------4--------- this is the beats of the bar    |
|					  to help you keep time           |
|									  |
|#bud means    (b)end the note (u)p then (d)own                           |
|									  |
|#budup means  (b)end the note (u)p then (d)own then (u)p then (d)own     |
|									  |
|x is a dead note created my resting fingers over the strings and then    |
|  strumming								  |
|									  |
|d an u underneath the tab is the stroke for the strumming                |
|                                                                         |
|/// signifys a slide up						  |
|									  |
|\\\ signifys a slide down						  |



Muse - Hysteria


Ad lib scratching up the bottom E string into intro riff






[[[[[[[[[[[[[[[[[ Intro Riff ]]]]]]]]]]]]]]]]]]






     1---------2---------3---------4---------

e----x---x--x--x---x--x-----------------------|
B----x---x--x--x---x--x--------12bud-10-------|
G---14--14-14-14--14-14-----------------------|
D----x---x--x--x---x--x-----------------------|
A---12--12-12-12--12-12-----------------------|
E----x---x--x--x---x--x-----------------------|
     d   d  u  d   d  u




     1---------2---------3---------4---------

e----x---x--x--x---x--x-----------------------|
B----x---x--x--x---x--x-----------------------|
G---13--13-13-13--13-13--------12bud-10-------|
D----x---x--x--x---x--x-----------------------|
A---11--11-11-11--11-11-----------------------|
E----x---x--x--x---x--x-----------------------|
     d   d  u  d   d  u 




     1---------2---------3---------4---------

e----x---x--x--x---x--x-----------------------|
B----x---x--x--x---x--x--------12bud-10-------|
G---10--10-10-10--10-10-----------------------|
D----x---x--x--x---x--x-----------------------|
A----8---8--8--8---8--8-----------------------|
E----x---x--x--x---x--x-----------------------|
     d   d  u  d   d  u



     1---------2---------3---------4---------

e----x---x--x--x---x--x-----------------------|
B----x---x--x--x---x--x-----------------------|
G----9---9--9--9---9--9--------12budud--------|
D----x---x--x--x---x--x-----------------------|
A----7---7--7--7---7--7-----------------------|
E----x---x--x--x---x--x-----------------------|
     d   d  u  d   d  u

     1---------2---------3---------4---------

e----x---x--x--x---x--x-----------------------|
B----x---x--x--x---x--x--------12bud-10-------|
G---14--14-14-14--14-14-----------------------|
D----x---x--x--x---x--x-----------------------|
A---12--12-12-12--12-12-----------------------|
E----x---x--x--x---x--x-----------------------|
     d   d  u  d   d  u




     1---------2---------3---------4---------

e----x---x--x--x---x--x-----------------------|
B----x---x--x--x---x--x-----------------------|
G---13--13-13-13--13-13--------12bud-10-------|
D----x---x--x--x---x--x-----------------------|
A---11--11-11-11--11-11-----------------------|
E----x---x--x--x---x--x-----------------------|
     d   d  u  d   d  u 




     1---------2---------3---------4---------

e----x---x--x--x---x--x-----------------------|
B----x---x--x--x---x--x--------12bud-10-------|
G---10--10-10-10--10-10-----------------------|
D----x---x--x--x---x--x-----------------------|
A----8---8--8--8---8--8-----------------------|
E----x---x--x--x---x--x-----------------------|
     d   d  u  d   d  u



     1---------2---------3---------4---------

e----x---x--x--x---x--x-----------------------|
B----x---x--x--x---x--x-----------------------|
G----9---9--9--9---9--9--------12budud--------|
D----x---x--x--x---x--x-----------------------|
A----7---7--7--7---7--7-----------------------|
E----x---x--x--x---x--x-----------------------|
     d   d  u  d   d  u






[[[[[[[[[[[[[[[[[[[ Verse ]]]]]]]]]]]]]]]]]]]] 






It's bugging........me.......................

     1---------2---------3---------4---------

e---------------------------------------------|
B---------------------------------------------|
G---------------------------------------------|
D----7----------------------------------------|
A----7----------------------------------------|
E----5----------------------------------------|

  ...grating.......me..................and...

     1---------2---------3---------4---------

e---------------------------------------------|
B---------------------------------------------|
G---------------------------------------------|
D---------------------------------------------|
A---------------------------------------------|
E---------------------------------------------|

  ...twisting.......me........a--------------

     1---------2---------3---------4---------

e---------------------------------------------|
B---------------------------------------------|
G---------------------------------------------|
D---------------------------------------------|
A---------------------------------------------|
E---------------------------------------------|

  --------round..............yeah....i'm.....

     1---------2---------3---------4---------

e---------------------------------------------|
B---------------------------------------------|
G---------------------------------------------|
D---------------------------------------------|
A---------------------------------------------|
E---------------------------------------------|

  ....e-----ndlessl------y...................

     1---------2---------3---------4---------

e---------------------------------------------|
B---------------------------------------------|
G---------------------------------------------|
D---------------------------------------------|
A---------------------------------------------|
E---------------------------------------------|

  ...ca------ving..i-----n.............and...

     1---------2---------3---------4---------

e---------------------------------------------|
B---------------------------------------------|
G---------------------------------------------|
D---------------------------------------------|
A---------------------------------------------|
E---------------------------------------------|

  ...tur-----ning...in-------side------out...

     1---------2---------3---------4---------

e---------------------------------------------|
B---------------------------------------------|
G---------------------------------------------|
D---------------------------------------------|
A---------------------------------------------|
E---------------------------------------------|

  ..........................cos i want it....

     1---------2---------3---------4---------

e---------------------------------------------|
B---------------------------------------------|
G---------------------------------------------|
D-----x-x-x-x-x-x-x-x-x-x-x-x-x-x-x-x-x-x-x-x-|
A-----x-x-x-x-x-x-x-x-x-x-x-x-x-x-x-x-x-x-x-x-|
E-----x-x-x-x-x-x-x-x-x-x-x-x-x-x-x-x-x-x-x-x-|


On the bar abouve lightly hold the strings over the first and 
2nd fret and strum up and down to get this dead string sound.






[[[[[[[[[[[[[[[[[[[ Chorus ]]]]]]]]]]]]]]]]]]]]






  ...now............................I Want it

     1---------2---------3---------4---------

e---------------------------------------------|
B---------------------------------------------|
G----5-----5-5-5----3////5-----5-5-5-5--------|
D----5-----5-5-5----3////5-----5-5-5-5--------|
A----3-----3-3-3----2////3-----3-3-3-3--------|
E---------------------------------------------|
     d     d u d    d          d u d u

  .....now.....................................

     1---------2---------3---------4---------

e---------------------------------------------|
B---------------------------------------------|
G---------------------------------------------|
D----5-----5-5-5----3////5-----5-5-5-5--------|
A----5-----5-5-5----3////5-----5-5-5-5--------|
E----3-----3-3-3----2////3-----3-3-3-3--------|
     d     d u d    d          d u d u

     ...give  me  your  heart  and  your..... 

     1---------2---------3---------4---------

e---------------------------------------------|
B---------------------------------------------|
G----7-----7-7-7----6////7-----7-7-7-7--------|
D----7-----7-7-7----6////7-----7-7-7-7--------|
A----5-----5-5-5----4////5-----5-5-5-5--------|
E---------------------------------------------|
     d     d u d    d          d u d u

  ...sou-----------------l.and i'm breaking..

     1---------2---------3---------4---------

e---------------------------------------------|
B---------------------------------------------|
G---------------------------------------------|
D----7-----7-7-7----6////7-----7-7-7-7-7-7----|
A----7-----7-7-7----6////7-----7-7-7-7-7-7----|
E----5-----5-5-5----4////5-----5-5-5-5-5-5----|
     d     d u d    d          d u d u d u

  ...ou------------------t.....i'm breaking..

     1---------2---------3---------4---------

e---------------------------------------------|
B---------------------------------------------|
G----5-----5-5-5----3////5-----5-5-5-5--------|
D----5-----5-5-5----3////5-----5-5-5-5--------|
A----3-----3-3-3----2////3-----3-3-3-3--------|
E---------------------------------------------|
     d     d u d    d          d u d u

  .....ou----------------t...................

     1---------2---------3---------4---------

e---------------------------------------------|
B---------------------------------------------|
G---------------------------------------------|
D----5-----5-5-5----3////5-----5-5-5-5--------|
A----5-----5-5-5----3////5-----5-5-5-5--------|
E----3-----3-3-3----2////3-----3-3-3-3--------|
     d     d u d    d          d u d u

     ...last chance to loose con---tro-----.. 

     1---------2---------3---------4---------

e---------------------------------------------|
B---------------------------------------------|
G----7-----7-7-7----6////7-----7-7-7-7--------|
D----7-----7-7-7----6////7-----7-7-7-7--------|
A----5-----5-5-5----4////5-----5-5-5-5--------|
E---------------------------------------------|
     d     d u d    d          d u d u

  ...-------------------------l.............


     1---------2---------3---------4---------

e---------------------------------------------|
B---------------------------------------------|
G---------------------------------------------|
D---------------------------------------------|
A---------------------------------------------|
E----0-0-12-0-12-13-0-15-0-12-0-15-15-12-15-17|
     d u  d u  d  u d  u d  u d  u  d  u  d  u






[[[[[[[[[[[[[[[[[ Intro Riff ]]]]]]]]]]]]]]]]]]






     1---------2---------3---------4---------

e----x---x--x--x---x--x-----------------------|
B----x---x--x--x---x--x--------12bud-10-------|
G---14--14-14-14--14-14-----------------------|
D----x---x--x--x---x--x-----------------------|
A---12--12-12-12--12-12-----------------------|
E----x---x--x--x---x--x-----------------------|
     d   d  u  d   d  u




     1---------2---------3---------4---------

e----x---x--x--x---x--x-----------------------|
B----x---x--x--x---x--x-----------------------|
G---13--13-13-13--13-13--------12bud-10-------|
D----x---x--x--x---x--x-----------------------|
A---11--11-11-11--11-11-----------------------|
E----x---x--x--x---x--x-----------------------|
     d   d  u  d   d  u 




     1---------2---------3---------4---------

e----x---x--x--x---x--x-----------------------|
B----x---x--x--x---x--x--------12bud-10-------|
G---10--10-10-10--10-10-----------------------|
D----x---x--x--x---x--x-----------------------|
A----8---8--8--8---8--8-----------------------|
E----x---x--x--x---x--x-----------------------|
     d   d  u  d   d  u



     1---------2---------3---------4---------

e----x---x--x--x---x--x-----------------------|
B----x---x--x--x---x--x-----------------------|
G----9---9--9--9---9--9--------12budud--------|
D----x---x--x--x---x--x-----------------------|
A----7---7--7--7---7--7-----------------------|
E----x---x--x--x---x--x-----------------------|
     d   d  u  d   d  u






[[[[[[[[[[[[[[[[[[[ Verse ]]]]]]]]]]]]]]]]]]]] 






It's holding........me.......................

     1---------2---------3---------4---------

e---------------------------------------------|
B---------------------------------------------|
G---------------------------------------------|
D----7----------------------------------------|
A----7----------------------------------------|
E----5----------------------------------------|

  ...morphing.......me.................and...

     1---------2---------3---------4---------

e---------------------------------------------|
B---------------------------------------------|
G---------------------------------------------|
D---------------------------------------------|
A---------------------------------------------|
E---------------------------------------------|

  ...forcing.......me........to.......stri-..

     1---------2---------3---------4---------

e---------------------------------------------|
B---------------------------------------------|
G---------------------------------------------|
D---------------------------------------------|
A---------------------------------------------|
E---------------------------------------------|

  -----------------ve.........to.......be....

     1---------2---------3---------4---------

e---------------------------------------------|
B---------------------------------------------|
G---------------------------------------------|
D---------------------------------------------|
A---------------------------------------------|
E---------------------------------------------|

  ....e-----ndlessl------y...................

     1---------2---------3---------4---------

e---------------------------------------------|
B---------------------------------------------|
G---------------------------------------------|
D---------------------------------------------|
A---------------------------------------------|
E---------------------------------------------|

  ...co----ld..withi---------------n...and...

     1---------2---------3---------4---------

e---------------------------------------------|
B---------------------------------------------|
G---------------------------------------------|
D---------------------------------------------|
A---------------------------------------------|
E---------------------------------------------|

  ...drea-----ming...i---m....a--------li-...

     1---------2---------3---------4---------

e---------------------------------------------|
B---------------------------------------------|
G---------------------------------------------|
D---------------------------------------------|
A---------------------------------------------|
E---------------------------------------------|

  ------------------ve......cos i want it....

     1---------2---------3---------4---------

e---------------------------------------------|
B---------------------------------------------|
G---------------------------------------------|
D-----x-x-x-x-x-x-x-x-x-x-x-x-x-x-x-x-x-x-x-x-|
A-----x-x-x-x-x-x-x-x-x-x-x-x-x-x-x-x-x-x-x-x-|
E-----x-x-x-x-x-x-x-x-x-x-x-x-x-x-x-x-x-x-x-x-|






[[[[[[[[[[[[[[[[[[[ Chorus ]]]]]]]]]]]]]]]]]]]]






  ...now............................I Want it

     1---------2---------3---------4---------

e---------------------------------------------|
B---------------------------------------------|
G----5-----5-5-5----3////5-----5-5-5-5--------|
D----5-----5-5-5----3////5-----5-5-5-5--------|
A----3-----3-3-3----2////3-----3-3-3-3--------|
E---------------------------------------------|
     d     d u d    d          d u d u

  .....now.....................................

     1---------2---------3---------4---------

e---------------------------------------------|
B---------------------------------------------|
G---------------------------------------------|
D----5-----5-5-5----3////5-----5-5-5-5--------|
A----5-----5-5-5----3////5-----5-5-5-5--------|
E----3-----3-3-3----2////3-----3-3-3-3--------|
     d     d u d    d          d u d u

     ...give  me  your  heart  and  your..... 

     1---------2---------3---------4---------

e---------------------------------------------|
B---------------------------------------------|
G----7-----7-7-7----6////7-----7-7-7-7--------|
D----7-----7-7-7----6////7-----7-7-7-7--------|
A----5-----5-5-5----4////5-----5-5-5-5--------|
E---------------------------------------------|
     d     d u d    d          d u d u

  ...sou-----------------l.and i'm breaking..

     1---------2---------3---------4---------

e---------------------------------------------|
B---------------------------------------------|
G---------------------------------------------|
D----7-----7-7-7----6////7-----7-7-7-7-7-7----|
A----7-----7-7-7----6////7-----7-7-7-7-7-7----|
E----5-----5-5-5----4////5-----5-5-5-5-5-5----|
     d     d u d    d          d u d u d u

  ...ou------------------t.....i'm breaking..

     1---------2---------3---------4---------

e---------------------------------------------|
B---------------------------------------------|
G----5-----5-5-5----3////5-----5-5-5-5--------|
D----5-----5-5-5----3////5-----5-5-5-5--------|
A----3-----3-3-3----2////3-----3-3-3-3--------|
E---------------------------------------------|
     d     d u d    d          d u d u

  .....ou----------------t...................

     1---------2---------3---------4---------

e---------------------------------------------|
B---------------------------------------------|
G---------------------------------------------|
D----5-----5-5-5----3////5-----5-5-5-5--------|
A----5-----5-5-5----3////5-----5-5-5-5--------|
E----3-----3-3-3----2////3-----3-3-3-3--------|
     d     d u d    d          d u d u

     ...last chance to loose con---tro-----.. 

     1---------2---------3---------4---------

e---------------------------------------------|
B---------------------------------------------|
G----7-----7-7-7----6////7-----7-7-7-7--------|
D----7-----7-7-7----6////7-----7-7-7-7--------|
A----5-----5-5-5----4////5-----5-5-5-5--------|
E---------------------------------------------|
     d     d u d    d          d u d u

  ...-------------------------l.............


     1---------2---------3---------4---------
                 
e---------------------------------------------|
B---------------------------------------------|
G---------------------------------------------|
D----7-----7-7-7---7-7-7-7-7-7----------------|
A----7-----7-7-7---7-7-7-7-7-7----------------|
E----5-----5-5-5---5-5-5-5-5-5--12//////////0-|
     d     d u d   d u d u d u   d
                P.M...........






[[[[[[[[[[[[[[[Pre-solo and solo]]]]]]]]]]]]]]]]






     1---------2---------3---------4---------

e---------------------------------------------|
B---------------------------------------------|
G---------------------------------------------|
D---------------------------------------------|
A---------------------------------------------|
E----0-0-12-0-12-13-0-10-0-10-9-0-9-8-0-8-7---|
     d u  d u  d  u d  u d  u d u d u d u d  

     1---------2---------3---------4---------

e---------------------------------------------|
B---------------------------------------------|
G---------------------------------------------|
D---------------------------------------------|
A---------------------------------------------|
E----0-12-0-12-13-0-10-0-10-9-0-9-8-0-8-7-----|
     d u  d u  d  u d  u d  u d u d u d u

     1---------2---------3---------4---------

e---------------------------------------------|
B---------------------------------------------|
G---------------------------------------------|
D---------------------------------------------|
A---------------------------------------------|
E----0-12-0-12-13-0-10-0-10-9-0-9-8-0-8-7-----|
     d u  d u  d  u d  u d  u d u d u d u

     1---------2---------3---------4---------

e---------------------------------------------|
B---------------------------------------------|
G---------------------------------------------|
D---------------------------------------------|
A---------------------------------------------|
E----0-12-0-12-13-0-15-0-12-0-15-15-12-15-17--|
     d u  d  u  d u  d u  d u  d  u  d  u  d

     1---------2---------3---------4---------

e---------12-12-----13-13-----13-13-12-12--12-|
B---------------------------------------------|
G----14-14-----14-14-----14-14-----------14---|
D---------------------------------------------|
A---------------------------------------------|
E---------------------------------------------|

     1---------2---------3---------4---------

e---------12-12-----13-13-----13-13-12-12-----|
B---------------------------------------------|
G----13-13-----13-13-----13-13-----------13---|
D------------------------------------------14-|
A---------------------------------------------|
E---------------------------------------------|

     1---------2---------3---------4---------

e---------13-13-----17-17-----13-13-----12-12-|
B---------------------------------------------|
G----14-14-----14-14-----14-14-----14-14------|
D---------------------------------------------|
A---------------------------------------------|
E---------------------------------------------|

     1---------2---------3---------4---------

e---------12-12-----13-13-----13-13-12-12--12-|
B---------------------------------------------|
G----14-14-----14-14-----14-14-----------14---|
D---------------------------------------------|
A---------------------------------------------|
E---------------------------------------------|

     1---------2---------3---------4---------

e---------12-12-----13-13-----13-13-12-12--12-|
B---------------------------------------------|
G----14-14-----14-14-----14-14-----------14---|
D---------------------------------------------|
A---------------------------------------------|
E---------------------------------------------|

     1---------2---------3---------4---------

e---------12-12-----13-13-----13-13-12-12-----|
B---------------------------------------------|
G----13-13-----13-13-----13-13-----------13---|
D------------------------------------------14-|
A---------------------------------------------|
E---------------------------------------------|

     1---------2---------3---------4---------

e---------13-13-----17-17-----13-13-----12----|
B---------------------------------------------|
G----14-14-----14-14-----14-14-----14-14------|
D------------------------------------------14-|
A---------------------------------------------|
E---------------------------------------------|

     1---------2---------3---------4---------

e----12---------------------------------------|
B--------------15--------13--------12---------|
G------14-14-14-------------------------------|
D----------------15-15-15--14-14-14--12-12-12-|
A---------------------------------------------|
E---------------------------------------------|

     1---------2---------3---------4---------

e---------------------------------------------|
B----13------------------------13--12--10h12--|
G--------12-----------------------------------|
D------------14-------------------------------|
A---------------------------------------------|
E---------------------------------------------|


     1---------2---------3---------4---------

e---------------------------------------------|
B----12------------------------12--12--13h15--|
G--------12-----------------------------------|
D------------12-------------------------------|
A---------------------------------------------|
E---------------------------------------------|

     1---------2---------3---------4---------

e---------------------------------------------|
B----15------------------------15--13--12h13--|
G--------14-----------------------------------|
D------------15-------------------------------|
A---------------------------------------------|
E---------------------------------------------|

     1---------2---------3---------4---------

e---------------------------------------------|
B----13------------------------15--13--12h13--|
G--------14-----------------------------------|
D------------14-------------------------------|
A---------------------------------------------|
E---------------------------------------------|

     1---------2---------3---------4---------

e---------------------------------------------|
B----13------------------------13--12--10h12--|
G--------12-----------------------------------|
D------------14-------------------------------|
A---------------------------------------------|
E---------------------------------------------|

     1---------2---------3---------4---------

e---------------------------------------------|
B----12------------------------12--12--13b15--|
G--------12-----------------------------------|
D------------12-------------------------------|
A---------------------------------------------|
E---------------------------------------------|

     1---------2---------3---------4---------

Note: Carry bent note through to next bar.

e---------------------------------------------|
B------------------------------15--13--12h13--|
G---------------------------------------------|
D--------14-----------------------------------|
A------------15-------------------------------|
E---------------------------------------------|

     1---------2---------3---------4---------

.............................cos i want you...

e---------------------------------------------|
B----13---------------------------------------|
G--------14-----------------------------------|
D------------14-----------x-x-x-x-x-x-x-x-x-x-|
A-------------------------x-x-x-x-x-x-x-x-x-x-|
E-------------------------x-x-x-x-x-x-x-x-x-x-|






[[[[[[[[[[[[[[[[[[[ Chorus ]]]]]]]]]]]]]]]]]]]]






  ...now............................I Want you

     1---------2---------3---------4---------

e---------------------------------------------|
B---------------------------------------------|
G----5-----5-5-5----3////5-----5-5-5-5--------|
D----5-----5-5-5----3////5-----5-5-5-5--------|
A----3-----3-3-3----2////3-----3-3-3-3--------|
E---------------------------------------------|
     d     d u d    d          d u d u

  .....now.....................................

     1---------2---------3---------4---------

e---------------------------------------------|
B---------------------------------------------|
G---------------------------------------------|
D----5-----5-5-5----3////5-----5-5-5-5--------|
A----5-----5-5-5----3////5-----5-5-5-5--------|
E----3-----3-3-3----2////3-----3-3-3-3--------|
     d     d u d    d          d u d u

     ......I feel...my...heart....implo-----... 

     1---------2---------3---------4---------

e---------------------------------------------|
B---------------------------------------------|
G----7-----7-7-7----6////7-----7-7-7-7--------|
D----7-----7-7-7----6////7-----7-7-7-7--------|
A----5-----5-5-5----4////5-----5-5-5-5--------|
E---------------------------------------------|
     d     d u d    d          d u d u

  ...------------------de.and i'm breaking...

     1---------2---------3---------4---------

e---------------------------------------------|
B---------------------------------------------|
G---------------------------------------------|
D----7-----7-7-7----6////7-----7-7-7-7-7-7----|
A----7-----7-7-7----6////7-----7-7-7-7-7-7----|
E----5-----5-5-5----4////5-----5-5-5-5-5-5----|
     d     d u d    d          d u d u d u

  ...ou------------------t......escaping....

     1---------2---------3---------4---------

e---------------------------------------------|
B---------------------------------------------|
G----5-----5-5-5----3////5-----5-5-5-5--------|
D----5-----5-5-5----3////5-----5-5-5-5--------|
A----3-----3-3-3----2////3-----3-3-3-3--------|
E---------------------------------------------|
     d     d u d    d          d u d u

  ...no------------------w...................

     1---------2---------3---------4---------

e---------------------------------------------|
B---------------------------------------------|
G---------------------------------------------|
D----5-----5-5-5----3////5-----5-5-5-5--------|
A----5-----5-5-5----3////5-----5-5-5-5--------|
E----3-----3-3-3----2////3-----3-3-3-3--------|
     d     d u d    d          d u d u

     ......feeling...my..faith....ero-----... 

     1---------2---------3---------4---------

e---------------------------------------------|
B---------------------------------------------|
G----7-----7-7-7----6////7-----7-7-7-7--------|
D----7-----7-7-7----6////7-----7-7-7-7--------|
A----5-----5-5-5----4////5-----5-5-5-5--------|
E---------------------------------------------|
     d     d u d    d          d u d u

  ...-----------------------------de.........

     1---------2---------3---------4---------
                 
e---------------------------------------------|
B---------------------------------------------|
G---------------------------------------------|
D----7-----7-7-7---7-7-7-7-7-7----------------|
A----7-----7-7-7---7-7-7-7-7-7----------------|
E----5-----5-5-5---5-5-5-5-5-5--12//////////0-|
     d     d u d   d u d u d u   d
                P.M...........

     1---------2---------3---------4---------

e---------------------------------------------|
B---------------------------------------------|
G---------------------------------------------|
D---------------------------------------------|
A---------------------------------------------|
E----0-0-12-0-12-13-0-10-0-10-9-0-9-8-0-8-7---|
     d u  d u  d  u d  u d  u d u d u d u d  

     1---------2---------3---------4---------

e---------------------------------------------|
B---------------------------------------------|
G---------------------------------------------|
D---------------------------------------------|
A---------------------------------------------|
E----0-12-0-12-13-0-10-0-10-9-0-9-8-0-8-7-----|
     d u  d u  d  u d  u d  u d u d u d u

     1---------2---------3---------4---------

e---------------------------------------------|
B---------------------------------------------|
G---------------------------------------------|
D---------------------------------------------|
A---------------------------------------------|
E----0-12-0-12-13-0-10-0-10-9-0-9-8-0-8-7-----|
     d u  d u  d  u d  u d  u d u d u d u

     1---------2---------3---------4---------

e---------------------------------------------|
B---------------------------------------------|
G---------------------------------------------|
D---------------------------------------------|
A---------------------------------------------|
E----0-12-0-12-13-0-10-0-10-9-0-9-8-0-8-7-----|
     d u  d u  d  u d  u d  u d u d u d u

     1---------2---------3---------4---------

e---------------------------------------------|
B---------------------------------------------|
G---------------------------------------------|
D---------------------------------------------|
A---------------------------------------------|
E----0-12-0-12-13-0-10-0-10-9-0-9-8-0-8-7-----|
     d u  d u  d  u d  u d  u d u d u d u

     1---------2---------3---------4---------

e---------------------------------------------|
B---------------------------------------------|
G---------------------------------------------|
D---------------------------------------------|
A---------------------------------------------|
E----0-12-0-12-13-0-10-0-10-9-0-9-8-0-8-7\\\0-|
     d u  d u  d  u d  u d  u d u d u d u




Thanks for viewing my tab. Hope you could use it.

E-mail me (plintonio@hotmail.com) to do ANY muse tab and ill try 
and get it up on this site for you.
comments
print report bad tab
3 comments total.
0 reply
Moss wrote on December 22 2004, 12:00 am

Please comment on my tab, its my first.

0 reply
Mr Pink wrote on March 18 2005, 12:00 am

dude its ok

0 reply
C_Turton wrote on November 9 2006, 07:54 am

I can only see a couple of mistakes, but they are quite bad ones.

E--0-0-10-0-10-12-0-10-0-10-9-0-9-8-0-8-7-0-10-0-10-12... etc.

There's also another place where you miss the 10-12-10 thingy and put in a random -13- instead. Other than that, good job.

I want to post or [tab]
guest
You may want to rate the tab now too:
select rating
Please do not post tabs as comments. Select "correction" instead!