Oops, an error
Loading. Please wait.

Hysteria Tab

by Muse
1,436 views 9 this week
no commentswrite comment
1 2 3 4 5
not so good
x 3
Autoscroll
+/-
esc
set tempo
stop
Contributor
Difficulty
intermediate
Hey! There's an official Ultimate Guitar app which is ideal
for learning songs when you're away from computer. Get the app
WARNING: You are trying to view
                                    content from Ultimate-Guitar.com
                                    in an unauthorized application,
                                    which is prohibited.

                                    Please use an official Ultimate
                                    Guitar Tabs application for iPhone,
                                    iPad or Android to access legitimate
                                    chords, guitar, bass, and drum tabs
                                    from Ultimate-Guitar.com database.

                                    Type "ultimate guitar tabs" in Apple
                                    App Store's or Android Market's
                                    search to find the application.
Muse - Hysteria

Here is the TAB version of my latest arrangement, you can also find a guitar pro version 
available on this site.


E ||---------------------------------------------------|
B ||---------------------------------------------------|
G ||o------0-----0--2-----0----------------------------|
D ||o---------------------------2-----3--3--2--0--2----|
A ||-0--0-----0--------0-----0-----0-------------------|
E ||---------------------------------------------------|


----------------------------------------------------|
----------------------------------------------------|
-----------------------0-----------0--0-----0--2----|
--------0-----0--2-----------2-----------2----------|
----------------------------------------------------|
--0--0-----0--------0-----0-----0-------------------|


----------------------------------------------------|
--------1-----1--3-----1-----1--0-----0-------------|
-----------------------------------------3-----3----|
--0--0-----0--------0-----0--------0--------0-------|
----------------------------------------------------|
----------------------------------------------------|


---------------------------------------------------|||
---------------------------------------------------|||
--2-----0-----0--2-----0--------------------------o|||
-----------------------------2-----3--3--2--0--2--o|||
-----0-----0--------0-----0-----0------------------|||
---------------------------------------------------|||


-5-----------x-----x-----5-----------x-----x-----------------7s-8-----------7---|
-------------x-----x-----------------x-----x------------------------------------|
o2-----------x-----x-----2-----------x-----x-----------------4s-5-----------4---|
o-------------------------------------------------------------------------------|
-0------------------------------------------------------------------------------|
--------------------------------------------------------------------------------|


--------5-------------|
----------------------|
--------2-------------|
----------------------|
----------------------|
----------------------|


--4-----------x-----x-----4-----------x-----x-----------------7s-8-----------7--|
--------------x-----x-----------------x-----x-----------------------------------|
--1-----------x-----x-----1-----------x-----x-----------------4s-5-----------4--|
--------------------------------------------------------------------------------|
--------------------------------------------------------------------------------|
--0-----------------------------------------------------------------------------|


---------5-------------|
-----------------------|
---------2-------------|
-----------------------|
-----------------------|
-----------------------|


--1-----------x-----x-----1-----------x-----x-----------------7s-8-----------7--|
--------------x-----x-----------------x-----x-----------------------------------|
--------------x-----x-----------------x-----x-----------------4s-5-----------4--|
--3-----------x-----x-----3-----------x-----x-----------------------------------|
--------------------------------------------------------------------------------|
--------------------------------------------------------------------------------|


---------5-------------|
-----------------------|
---------2-------------|
-----------------------|
-----------------------|
-----------------------|


--0-----------x-----x-----0-----------x-----x-----------------7s-8--------------|
--------------x-----x-----------------x-----x-----------------------------------|
--------------x-----x-----------------x-----x-----------------4s-5--------------|
--2-----------x-----x-----2-----------x-----x-----------------------------------|
--0-----------------------------------------------------------------------------|
--------------------------------------------------------------------------------|


---7s-8------------------||
-------------------------||
---4s-5-----------------o||
------------------------o||
-------------------------||
-------------------------||


--0-----------x-----x-----0-----------x-----x-----------------7s-8-----------8--|
--------------x-----x-----------------x-----x-----------------------------------|
--------------x-----x-----------------x-----x-----------------4s-5-----------5--|
--2-----------x-----x-----2-----------x-----x-----------------------------------|
--0-----------------------------------------------------------------------------|
--------------------------------------------------------------------------------|

                          ^
-----------------------||----------0----------------|
---------0-------------||-1-------------------------|
-----------------------||o2-----2--------2-----2----|
-----------------------||o2--2--------------2-------|
-----------------------||-0--------0----------------|
-----------------------||---------------------------|

  ^
-----------0-----------0----|
--0-------------------------|
--1-----1--------------1----|
--0--0----------------------|
----------------------------|
--0--------0-----0--0-------|

  ^
--1-----------------------------------3s-5-----------------------5--------------|
--3-----------------------3--------------------------------------------------3--|
--2-----------2--------------------------------------2--------------------------|
--0--------------------------------------0--------------------------------------|
--------------------------------------------------------------------------------|
--------------------------------------------------------------------------------|


---------5L------------|--5h----0-------------------------------------------|
-----------------------|-----------------------------------1--------1-------|
-----------------------|--------------------2-------------------------------|
-----------------------|--------------2-----------2-------------------------|
-----------------------|--------0-------------------------------------------|
-----------------------|----------------------------------------------------|

  ^                            ^
-----------0----------------|-----------0-----------0----|
--1-------------------------|--0-------------------------|
--2-----2--------2-----2----|--1-----1--------------1----|
--2--2--------------2-------|--0--0----------------------|
--0--------0----------------|----------------------------|
----------------------------|--0--------0-----0--0-------|

  ^
--1-----------------------------------3s-5-----------------------5--------------|
--3-----------------------3--------------------------------------3--------------|
--2-----------2--------------------------------------------------2--------------|
--0--------------------------------------0-----------0-----------------------0--|
--------------------------------------------------------------------------------|
--------------------------------------------------------------------------------|


---------5L------------|--5--------------0--0-------|
---------3L------------|--3--------------------3----|
---------2L------------|--2--------2----------------|
-----------------------|--------2-------------------|
-----------------------|-----0----------------------|
-----------------------|-----------------0----------|

  ^     ^  v  ^     ^           ^     ^     ^
--0-----0--0--0-----0-----------0-----0-----0L------|
--1-----1--1--1-----1-----------1-----1-----3L------|
--0-----0--0--0-----0-----------0-----0-----4L------|
--2-----2--2--2-----2-----------2-----2-----2L------|
--3-----3--3--3-----3-----------3-----3-----3-------|
----------------------------------------------------|

        ^     ^  v  ^     ^
--0-----1-----1--1--1-----1-----------x-----x-------|
--3-----3-----3--3--3-----3-----------x-----x-------|
--4-----0-----0--0--0-----0-----------x-----x-------|
--2-----0-----0--0--0-----0-----------x-----x-------|
--------2-----2--2--2-----2-----------x-----x-------|
--------3-----3--3--3-----3-----------x-----x-------|

        ^     v     ^     ^        ^        ^
--x-----1-----1-----0-----1--------1--------1-------|
--x-----3-----3-----3-----3--------3--------3-------|
--x-----2-----2-----2-----2--------2--------2-------|
--x-----0-----0-----0-----0--------0--------0-------|
--x-------------------------------------------------|
--x-------------------------------------------------|

           ^                                                  ^
-----------0--------------------------------------------------0-----------0-----|
-----------1--------------------------------------------------1-----------1-----|
-----------2--------------------------------------------------2-----------------|
-----------2--------------------------------------------------2-----------------|
-----------0--------------------------------------------------0-----------------|
--------------------------------------------------------------------------------|

                       ^     ^  v  ^     ^           ^     ^     ^
------0-------------|--0-----0--0--0-----0-----------0-----0-----0L------|
------3-------------|--1-----1--1--1-----1-----------1-----1-----3L------|
--------------------|--0-----0--0--0-----0-----------0-----0-----4L------|
--------------------|--2-----2--2--2-----2-----------2-----2-----2L------|
--------------------|--3-----3--3--3-----3-----------3-----3-----3-------|
--------------------|----------------------------------------------------|

        ^     ^  v  ^     ^
--0-----1-----1--1--1-----1-----------x-----x-------|
--3-----3-----3--3--3-----3-----------x-----x-------|
--4-----0-----0--0--0-----0-----------x-----x-------|
--2-----0-----0--0--0-----0-----------x-----x-------|
--------2-----2--2--2-----2-----------x-----x-------|
--------3-----3--3--3-----3-----------x-----x-------|

        ^     v     ^     ^        ^        ^
--x-----1-----1-----0-----1--------0--------0-------|
--x-----3-----3-----3-----3--------3--------1-------|
--x-----2-----2-----2-----2--------2--------0-------|
--x-----0-----0-----0-----0--------0----------------|
--x-------------------------------------------------|
--x-------------------------------------------------|


----------------------------------------------------|
----------------------------------------------------|
-----------------------0-----------0--0-----0--2----|
--------0-----0--2-----------2-----------2----------|
-----------2----------------------------------------|
--0--0--------------0-----0-----0-------------------|


--5-----------x-----x-----5-----------x-----x-----------------7s-8-----------7--|
--------------x-----x-----------------x-----x-----------------------------------|
--2-----------x-----x-----2-----------x-----x-----------------4s-5-----------4--|
--------------------------------------------------------------------------------|
--0-----------------------------------------------------------------------------|
--------------------------------------------------------------------------------|


---------5-------------|
-----------------------|
---------2-------------|
-----------------------|
-----------------------|
-----------------------|


--4-----------x-----x-----4-----------x-----x-----------------7s-8-----------7--|
--------------x-----x-----------------x-----x-----------------------------------|
--1-----------x-----x-----1-----------x-----x-----------------4s-5-----------4--|
--------------------------------------------------------------------------------|
--------------------------------------------------------------------------------|
--0-----------------------------------------------------------------------------|


---------5-------------|
-----------------------|
---------2-------------|
-----------------------|
-----------------------|
-----------------------|


--1-----------x-----x-----1-----------x-----x-----------------7s-8-----------7--|
--------------x-----x-----------------x-----x-----------------------------------|
--------------x-----x-----------------x-----x-----------------4s-5-----------4--|
--3-----------x-----x-----3-----------x-----x-----------------------------------|
--------------------------------------------------------------------------------|
--------------------------------------------------------------------------------|


---------5-------------|
-----------------------|
---------2-------------|
-----------------------|
-----------------------|
-----------------------|


--0-----------x-----x-----0-----------x-----x-----------------7s-8-----------8--|
--------------x-----x-----------------x-----x-----------------------------------|
--------------x-----x-----------------x-----x-----------------4s-5-----------5--|
--2-----------x-----x-----2-----------x-----x-----------------------------------|
--0-----------------------------------------------------------------------------|
--------------------------------------------------------------------------------|


----------------------||----------------------------------------------------|
---------0------------||----------------------------------------------------|
---------------------o||----------------------------------------------------|
---------------------o||--------0-----0--2-----0-----0----------------------|
----------------------||--------------------------------4-----4--3-----3----|
----------------------||--0--0-----0--------0-----0--------0--------0-------|


----------------------------------------------------|
----------------------------------------------------|
----------------------------------------------------|
--------0-----0--2-----0-----0----------------------|
--2-----------------------------4-----4--3-----3----|
-----0-----0--------0-----0--------0--------0-------|


----------------------------------------------------|
----------------------------------------------------|
----------------------------------------------------|
--------0-----0--2-----0-----0----------------------|
--2-----------------------------4-----4--3-----3----|
-----0-----0--------0-----0--------0--------0-------|


----------------------------------------------------|
----------------------------------------------------|
-----------------------0-----------0--0-----0--2----|
--------0-----0--2-----------2-----------2----------|
--2-------------------------------------------------|
-----0-----0--------0-----0-----0-------------------|


--------0--0--------1--1--------1--1--0--0-----0----|
----------------------------------------------------|
-----2-----------2-----------2--------------2-------|
----------------------------------------------------|
--0-----------0-----------0-----------0-------------|
----------------------------------------------------|


--------0--0--------1--1--------1--1--0--0-----0----|
----------------------------------------------------|
-----1-----------1-----------1--------------1-------|
----------------------------------------------------|
----------------------------------------------------|
--0-----------0-----------0-----------0-------------|


--------1--1--------5--5--------1--1--------0--0----|
----------------------------------------------------|
-----2-----------2-----------2-----------2----------|
--0-----------0-----------0-----------0-------------|
----------------------------------------------------|
----------------------------------------------------|


--------0--0--------1--1--------1--1--0--0-----0----|
----------------------------------------------------|
-----2-----------2-----------2--------------2-------|
----------------------------------------------------|
--0-----------0-----------0-----------0-------------|
----------------------------------------------------|


--------0--0--------1--1--------1--1--0--0-----0----|
----------------------------------------------------|
-----2-----------2-----------2--------------2-------|
----------------------------------------------------|
--0-----------0-----------0-----------0-------------|
----------------------------------------------------|


--------0--0--------1--1--------1--1--0--0-----0----|
----------------------------------------------------|
-----1-----------1-----------1--------------1-------|
----------------------------------------------------|
----------------------------------------------------|
--0-----------0-----------0-----------0-------------|


--------1--1--------5--5--------1--1--------0--0----|
----------------------------------------------------|
-----2-----------2-----------2-----------2----------|
--0-----------0-----------0-----------0-------------|
----------------------------------------------------|
----------------------------------------------------|


--0-------------------------------------------------|
--------------3-----------1-----------0-------------|
-----2-----------2-----------2-----------2----------|
--------2-----------3-----------2-----------0-------|
--0--------0--0--------0--0--------0--0--------0----|
----------------------------------------------------|


----------------------------|----------------------------|
--1--------------0--1-------|--0--------------0--0--1----|
-----0-----------------2----|-----0----------------------|
--------2-------------------|--------0-------------------|
--3--------------3----------|----------------------------|
----------------------------|--3--------------3----------|


----------------------------|----------------------------|
--3--------------1h-3--0----|--1--------------3--1--0----|
-----2----------------------|-----2----------------------|
--0-----3--------0----------|--------2-------------------|
----------------------------|--0--------------0----------|
----------------------------|----------------------------|

  ^
----------------------------------------------------|
--1-----------------------------0h-1h-0-------------|
--0-----0-----------------------------------2-------|
--2-----------2-------------------------------------|
--3-----------------------------3-------------------|
----------------------------------------------------|

  ^
----------------------------|
--0--------------0--0--1----|
--0--0----------------------|
--0-----0-------------------|
----------------------------|
--3--------------3----------|


--------------------------------------------------------------------------------|
--2s-3--------------------------------------------------------------1h----3-----|
--------------------------------------------------------------------------------|
-----0-----------------------0s-2h----------0-----------------------0-----------|
--------------------------------------------------------------------------------|
--------------------------------------------------------------------------------|

                             ^
--------------------------|-----------------0--0-------|
1-----------0-------------|--1--------------3--1--3----|
--------------------------|--2--2-----------------4----|
--------------------------|--2-----2-------------------|
--------------------------|--0--------------0----------|
--------------------------|----------------------------|

  ^                 ^           ^  v  ^     ^
--0-----------------0-----------0--0--0-----0L------|
--1-----1-----------1-----------1--1--1-----3L------|
--0-----------0-----0-----------0--0--0-----4L------|
--2-----------------2-----------2--2--2-----2L------|
--3-----------------3-----------3--3--3-----3-------|
----------------------------------------------------|

        ^     ^  v  ^     ^
--0-----1-----1--1--1-----1-----------x-----x-------|
--3-----3-----3--3--3-----3-----------x-----x-------|
--4-----0-----0--0--0-----0-----------x-----x-------|
--2-----0-----0--0--0-----0-----------x-----x-------|
--------2-----2--2--2-----2-----------x-----x-------|
--------3-----3--3--3-----3-----------x-----x-------|

              v     ^     ^        ^        ^
--0-----------1-----0-----1--------1--------1-------|
--------3-----3-----3-----3--------3--------3-------|
--------------2-----2-----2--------2--------2-------|
--0-----------0-----0-----0--------0--------0-------|
----------------------------------------------------|
----------------------------------------------------|

           ^                                                  ^
-----------0--------------------------------------------------0-----------0-----|
-----------1--------------------------------------------------1-----------1-----|
-----------2--------------------------------------------------2-----------------|
-----------2--------------------------------------------------2-----------------|
-----------0--------------------------------------------------0-----------------|
--------------------------------------------------------------------------------|

                       ^                 ^           ^  v  ^     ^
------0-------------|--0-----------------0-----------0--0--0-----0L------|
------3-------------|--1-----1-----------1-----------1--1--1-----3L------|
--------------------|--0-----------0-----0-----------0--0--0-----4L------|
--------------------|--2-----------------2-----------2--2--2-----2L------|
--------------------|--3-----------------3-----------3--3--3-----3-------|
--------------------|----------------------------------------------------|

        ^     ^  v  ^     ^
--0-----1-----1--1--1-----1-----------x-----x-------|
--3-----3-----3--3--3-----3-----------x-----x-------|
--4-----0-----0--0--0-----0-----------x-----x-------|
--2-----0-----0--0--0-----0-----------x-----x-------|
--------2-----2--2--2-----2-----------x-----x-------|
--------3-----3--3--3-----3-----------x-----x-------|

              v     ^     ^        ^        ^
--0-----------1-----0-----1--------0--------0-------|
--------3-----3-----3-----3--------3--------1-------|
--------------2-----2-----2--------2--------0-------|
--0-----------0-----0-----0--------0----------------|
----------------------------------------------------|
----------------------------------------------------|


--0-----0-----------0-------|
-----1-----------3----------|
----------------------------|
-----------------------2----|
----------------------------|
----------------------------|


----------------------------------------------------|
----------------------------------------------------|
----------------------------------------------------|
--------0-----0--2-----0-----0----------------------|
--------------------------------4-----4--3-----3----|
--0--0-----0--------0-----0--------0--------0-------|


----------------------------------------------------|
----------------------------------------------------|
----------------------------------------------------|
--------0-----0--2-----0-----0----------------------|
--2-----------------------------4-----4--3-----3----|
-----0-----0--------0-----0--------0--------0-------|


----------------------------------------------------|
----------------------------------------------------|
----------------------------------------------------|
--------0-----0--2-----0-----0----------------------|
--2-----------------------------4-----4--3-----3----|
-----0-----0--------0-----0--------0--------0-------|


----------------------------------------------------|
----------------------------------------------------|
----------------------------------------------------|
--------0-----0--2-----0-----0----------------------|
--2-----------------------------4-----4--3-----3----|
-----0-----0--------0-----0--------0--------0-------|


----------------------------------------------------|
----------------------------------------------------|
----------------------------------------------------|
--------0-----0--2-----0-----0----------------------|
--2-----------------------------4-----4--3-----3----|
-----0-----0--------0-----0--------0--------0-------|


----------------------------------------------------|-------||
----------------------------------------------------|-------||
----------------------------------------------------|-------||
--------0-----0--2-----0-----0----------------------|--2----||
--2-----------------------------4-----4--3-----3----|--2----||
-----0-----0--------0-----0--------0--------0-------|--0----||


If you liked my arrangement please rate it, don't be shy to leave a comment also. If you 
like my work you can also help me by donating to the following link http://tinyurl.com/ckajzfx

Donations help me a great deal. As single guitar finger picking becomes more popular, 
most arrangements are accessible only through paying membership or simply sold. I think 
music should be free, that's why I share my work with you on many different sites.

However for those of financial means who appreciate my work, a little donation once in a 
while goes a long way to encourage people like me to maintain that state of mind and 
continue working on new arrangements to share with everyone for free.

Thanks to who donated thus far.



Title: Hysteria
SubTitle: (Lewt's Arrangement)
Artist: Muse
Album: Absolution
Words: Matthew Bellamy
Music: Matthew Bellamy
Tabber: Lewt
Tempo = 94
Guitar

Legend
L - tied note
x - dead note
h - hammer on/pull off
b - bend
s - slide
~ - vibrato
g - ghost note
> - accentuated note
t - trill
M - palm mute
. - staccato
P - popping (bass)
S - slapping (bass)
+ - tapping
W - wide vibrato
< - fade in
w - whammy bar
= - tremolo picking
v - brush up
^ - brush down
V - pick stroke up
n - pick stroke down
comments
We did not receive enough feedback on this tab! Please rate:
print report bad tab
1 2 3 4 5
I want to post or [tab]
guest
You may want to rate the tab now too:
select rating
Please do not post tabs as comments. Select "correction" instead!