Oops, an error
Loading. Please wait.

Micro Cuts Tab

by Muse
ver2
ver2

Whole song

More versions @911Tabs.com
3,361 views 30 this week
no commentswrite comment
1 2 3 4 5
worth learning
x 2
Autoscroll
+/-
esc
set tempo
stop
Contributor
Difficulty
Tuning
intermediate
D A D G B E
WARNING: You are trying to view
                                    content from Ultimate-Guitar.com
                                    in an unauthorized application,
                                    which is prohibited.

                                    Please use an official Ultimate
                                    Guitar Tabs application for iPhone,
                                    iPad or Android to access legitimate
                                    chords, guitar, bass, and drum tabs
                                    from Ultimate-Guitar.com database.

                                    Type "ultimate guitar tabs" in Apple
                                    App Store's or Android Market's
                                    search to find the application.
Micro Cuts
(Drop-D tuning, DADGBe-guitar/DADG-bass)

*Note: the G string is not shown on the bass tab because it is not used.*
*Another note: This song was created with two bass guitars, so this bass line is adapted 
to play both bass lines on a single guitar.*

Legend:

Guitar/Bass:
l=used instead of 1 for 2 digit frets (l0,l1,l2,l3..etc) to show a  difference between 
1,0 and 10 or 1,1 and 11...etc.
x=mute (note before)
b=bend up
d=unbend
>=loud
weeweew!=slide up and down (follow song)

Drums:
C=Crash
S=Splash
B=Bass drum
H=Hi-hat
%=scissor the hi-hat
x=standard note/closed hi-hat
X=loose hi-hat
o=open hi-hat
capital on cymbal line=hammer it
>=loud
#=choke

Order:
/Guitar
{Bass
\Drums

Intro
e|--------l0------|--------l0------|--------l0------|--------l0------|
B|----l0----l0--l0|----l0----l0--l0|----l0----l0--l0|----l0----l0--l0|
G|--l0--l0----l0--|--l0--l0----l0--|--l0--l0----l0--|--l0--l0----l0--|
D|l2--------------|l2--------------|l2--------------|l2--------------|
A|----------------|----------------|----------------|----------------|
D|----------------|----------------|----------------|----------------|
 |                                                                   |
D|--0---0---0---0-|--0---0---0---0-|--0---0---0---0-|--0---0---0---0-|
A|----------------|----------------|----------------|----------------|
D|0---0---0---0---|0---0---0---0---|0---0---0---0---|0---0---0---0---|
 |                                                                   |
C|----------------|----------------|----------------|----------------|
S|----------------|----------------|----------------|----------------|
H|----------------|----------------|----------------|----------------|
B|----------------|----------------|----------------|----------------|


e|--------l0------|--------l0------|--------l0------|--------l0------|
B|----l0----l0--l0|----l0----l0--l0|----l0----l0--l0|----l0----l0--l0|
G|--l0--l0----l0--|--l0--l0----l0--|--l0--l0----l0--|--l0--l0----l0--|
D|l2--------------|l2--------------|l2--------------|l2--------------|
A|----------------|----------------|----------------|----------------|
D|----------------|----------------|----------------|----------------|
 |                                                                   |
D|0-0-------------|0-0-------------|0-0-------------|0-0-------------|
A|----------------|----------------|----------------|----------------|
D|0-0-0-0-0-0-0-0-|0-0-0-0-0-0-0-0-|0-0-0-0-0-0-0-0-|0-0-0-0-0-0-0-0-|
 |                                                                   |
C|c---------------|----------------|----------------|----------------|
S|--------x-------|--------x-------|--------x-------|--------x-------|
H|x---x---x---x---|%---x---x---x---|%---x---x---x---|%---x---x---x---|
B|----------------|x-x-------------|x-x-------------|x-x-------------|


e|--------l0------|--------l0------|------l0------l0|--------l0------|
B|----l0----l0--l0|----l1----l1--l1|----l0------l0--|----l1----l1--l1|
G|--l0--l0----l0--|--l2--l2----l2--|--l0------l1----|--l2--l2----l2--|
D|l2--------------|l2--------------|l2------l2------|l2--------------|
A|----------------|----------------|----------------|----------------|
D|----------------|----------------|----------------|----------------|
 |                                                                   |
D|0-0-------------|2-2-------------|3-3-----4-4-----|5-5-------------|
A|----------------|----------------|----------------|----------------|
D|0-0-0-0-0-0-0-0-|2-2-2-2-2-2-2-2-|3-3-3-3-4-4-4-4-|5-5-5-5-5-5-5-5-|
 |                                                                   |
C|s---------------|----------------|----------------|----------------|
S|--------x-------|--------x-------|----------------|--------x-------|
H|x---x---x---x---|%---x---x---x---|%---x---x---x---|%---x---x---x---|
B|x---------------|x-x-------------|x-x-----x-x-----|x-x-------------|


e|l0--------------|l0------l0------|--------l0------|l0--------------|
B|--l1--l1----l1--|--l1--l1--l1--l1|----l0----l0--l0|--l0--l0----l0--|
G|----l2----l2--l2|----l2------l2--|--l0--l0----l0--|----l0----l2--l2|
D|--------l2------|----------------|l2--------------|--------l1------|
A|----------------|----------------|----------------|----------------|
D|----------------|----------------|----------------|----------------|
 |                                                                   |
D|--------5-5-----|----------------|0-0-------------|--------l1l1----|
A|----------------|----------------|----------------|----------------|
D|5-5-5-5-5-5-5-5-|5-5-5-5-5-5-5-5-|0-0-0-0-0-0-0-0-|0-0-0-0-l1l1l1l1|
 |                                                                   |
C|----------------|----------------|s---------------|----------------|
S|x---------------|x-------x-------|--------x-------|x---------------|
H|x---x---%---x---|x---x---x---x---|----x---x---x---|x---x---%---x---|
B|----x---x-x-----|------------x---|x-x-------------|----x---x-x-----|


e|l2------l2------|--------l0------|l0------------l0|------l0------l0|
B|--l0--l0--l0--l0|----l0----l0--l0|--l0--l0----l0--|----l0------l0--|
G|----l2------l2--|--l0--l0----l0--|----l0----l0----|--l0------l0----|
D|----------------|l2--------------|--------l2------|l2------l2------|
A|----------------|----------------|----------------|----------------|
D|----------------|----------------|----------------|----------------|
 |                                                                   |
D|----------------|0-0-------------|--------0-0-----|0-0-----0-0-----|
A|----------------|----------------|----------------|----------------|
D|l1l1l1l1l1l1l1l1|0-0-0-0-0-0-0-0-|0-0-0-0-0-0-0-0-|0-0-0-0-0-0-0-0-|
 |                                                                   |
C|----------------|----------------|----------------|----------------|
S|x-------x-------|--------x-------|x---------------|----------------|
H|x---x---x---x---|%---x---x---x---|x---x---%---x---|x---x---%---x---|
B|------------x---|x-x-------------|----x---x-x-----|x-x-----x-x-----|

Verse 1
e|--------l0------|--------l0------|------l0------l0|--------l0------|
B|----l0----l0--l0|----l1----l1--l1|----l0------l0--|----l1----l1--l1|
G|--l0--l0----l0--|--l2--l2----l2--|--l0------l1----|--l2--l2----l2--|
D|l2--------------|l2--------------|l2------l2------|l2--------------|
A|----------------|----------------|----------------|----------------|
D|----------------|----------------|----------------|----------------|
 |                                                                   |
D|0-0-------------|2-2-------------|3-3-----4-4-----|5-5-------------|
A|----------------|----------------|----------------|----------------|
D|0-0-0-0-0-0-0-0-|2-2-2-2-2-2-2-2-|3-3-3-3-4-4-4-4-|5-5-5-5-5-5-5-5-|
 |                                                                   |
C|s---------------|----------------|----------------|----------------|
S|--------x-------|--------x-------|----------------|--------x-------|
H|x---x---x---x---|%---x---x---x---|%---x---x---x---|%---x---x---x---|
B|x---------------|x-x-------------|x-x-----x-x-----|x-x-------------|


e|l0--------------|l0------l0------|--------l0------|l0--------------|
B|--l1--l1----l1--|--l1--l1--l1--l1|----l0----l0--l0|--l0--l0----l0--|
G|----l2----l2--l2|----l2------l2--|--l0--l0----l0--|----l0----l2--l2|
D|--------l2------|----------------|l2--------------|--------l1------|
A|----------------|----------------|----------------|----------------|
D|----------------|----------------|----------------|----------------|
 |                                                                   |
D|--------5-5-----|----------------|0-0-------------|--------l1l1----|
A|----------------|----------------|----------------|----------------|
D|5-5-5-5-5-5-5-5-|5-5-5-5-5-5-5-5-|0-0-0-0-0-0-0-0-|0-0-0-0-l1l1l1l1|
 |                                                                   |
C|----------------|----------------|s---------------|----------------|
S|x---------------|x-------x-------|--------x-------|x---------------|
H|x---x---%---x---|x---x---x---x---|----x---x---x---|x---x---%---x---|
B|----x---x-x-----|------------x---|x-x-------------|----x---x-x-----|


e|l2------l2------|--------l0------|l0------------l0|------l0------l0|
B|--l0--l0--l0--l0|----l0----l0--l0|--l0--l0----l0--|----l0------l0--|
G|----l2------l2--|--l0--l0----l0--|----l0----l0----|--l0------l0----|
D|----------------|l2--------------|--------l2------|l2------l2------|
A|----------------|----------------|----------------|----------------|
D|----------------|----------------|----------------|----------------|
 |                                                                   |
D|----------------|0-0-------------|--------0-0-----|0-0-----0-0-----|
A|----------------|----------------|----------------|----------------|
D|l1l1l1l1l1l1l1l1|0-0-0-0-0-0-0-0-|0-0-0-0-0-0-0-0-|0-0-0-0-0-0-0-0-|
 |                                                                   |
C|----------------|----------------|----------------|----------------|
S|x-------x-------|--------x-------|x---------------|----------------|
H|x---x---x---x---|%---x---x---x---|x---x---%---x---|x---x---%---x---|
B|------------x---|x-x-------------|----x---x-x-----|x-x-----x-x-----|


e|--------l0------|--------l0------|------l0------l0|--------l0------|
B|----l0----l0--l0|----l1----l1--l1|----l0------l0--|----l1----l1--l1|
G|--l0--l0----l0--|--l2--l2----l2--|--l0------l1----|--l2--l2----l2--|
D|l2--------------|l2--------------|l2------l2------|l2--------------|
A|----------------|----------------|----------------|----------------|
D|----------------|----------------|----------------|----------------|
 |                                                                   |
D|0-0-------------|2-2-------------|3-3-----4-4-----|5-5-------------|
A|----------------|----------------|----------------|----------------|
D|0-0-0-0-0-0-0-0-|2-2-2-2-2-2-2-2-|3-3-3-3-4-4-4-4-|5-5-5-5-5-5-5-5-|
 |                                                                   |
C|s---------------|----------------|----------------|----------------|
S|--------x-------|--------x-------|----------------|--------x-------|
H|x---x---x---x---|%---x---x---x---|%---x---x---x---|%---x---x---x---|
B|x---------------|x-x-------------|x-x-----x-x-----|x-x-------------|


e|l0--------------|l0------l0------|--------l0------|l0--------------|
B|--l1--l1----l1--|--l1--l1--l1--l1|----l0----l0--l0|--l0--l0----l0--|
G|----l2----l2--l2|----l2------l2--|--l0--l0----l0--|----l0----l2--l2|
D|--------l2------|----------------|l2--------------|--------l1------|
A|----------------|----------------|----------------|----------------|
D|----------------|----------------|----------------|----------------|
 |                                                                   |
D|--------5-5-----|----------------|0-0-------------|--------l1l1----|
A|----------------|----------------|----------------|----------------|
D|5-5-5-5-5-5-5-5-|5-5-5-5-5-5-5-5-|0-0-0-0-0-0-0-0-|0-0-0-0-l1l1l1l1|
 |                                                                   |
C|----------------|----------------|----------------|----------------|
S|x---------------|x-------x-------|--------x-------|x---------------|
H|x---x---%---x---|x---x---x---x---|----x---x---x---|x---x---%---x---|
B|----x---x-x-----|------------x---|x-x-------------|----x---x-x-----|


e|l2------l2------|--------l0------|l0--------------|----------------|
B|--l0--l0--l0--l0|----l0----l0--l0|--l0--l0--------|----------------|
G|----l2------l2--|--l0--l0----l0--|----l0----------|----------------|
D|----------------|l2--------------|--------0x0x----|0x0x----0x0x----|
A|----------------|----------------|--------0x0x----|0x0x----0x0x----|
D|----------------|----------------|--------0x0x----|0x0x----0x0x----|
 |                                                                   |
D|----------------|0-0-------------|--------0x0x----|0x0x----0x0x----|
A|----------------|----------------|----------------|----------------|
D|l1l1l1l1l1l1l1l1|0-0-0-0-0-0-0-0-|0-0-0-0-0x0x----|0x0x----0x0x----|
 |                                                                   |
C|----------------|----------------|----------------|----------------|
S|x-------x-------|--------x-------|x---------------|----------------|
H|x---x---X---X---|X---X---o---o---|o---o--------f--|-----f-------f--|
T|----------------|----------------|--------x-x-----|x-x-----x-x-----|
B|------------x---|x-x-------------|----x---x-x-----|x-x-----x-x-----|

Chorus
e|----------------|----------------|----------------|----------------|
B|----------------|----------------|----------------|----------------|
G|----------------|----------------|----------------|----------------|
D|5-5-5-5-5-5-5-5-|4-4-4-4-4-4-4-4-|5-5-5-5-5-5-5-5-|5-5-5-5-5-5-5-5-|
A|5-5-5-5-5-5-5-5-|0-0-0-0-0-0-0-0-|5-5-5-5-5-5-5-5-|5-5-5-5-5-5-5-5-|
D|5-5-5-5-5-5-5-5-|0-0-0-0-0-0-0-0-|5-5-5-5-5-5-5-5-|5-5-5-5-5-5-5-5-|
 |                                                                   |
D|5-5-5-5-5-5-5-5-|0-0-0-0-0-0-0-0-|5-5-5-5-5-5-5-5-|5-5-5-5-5-5-5-5-|
A|5-5-5-5-5-5-5-5-|0-0-0-0-0-0-0-0-|5-5-5-5-5-5-5-5-|5-5-5-5-5-5-5-5-|
D|5-5-5-5-5-5-5-5-|0-0-0-0-0-0-0-0-|5-5-5-5-5-5-5-5-|5-5-5-5-5-5-5-5-|
 |                                                                   |
C|C---c---C---c---|C---c---C---c---|C---c---C---c---|C---C---C---c---|
S|--------x-------|--------x-------|--------x-------|--------x-------|
B|x---------------|x-x-------------|x-x-------------|x---------------|
  >

e|----------------|----------------|----------------|----------------|
B|----------------|----------------|----------------|----------------|
G|----------------|----------------|----------------|----------------|
D|5-5-5-5-5-5-5-5-|4-4-4-4-4-4-4-4-|5-5-5-5-5-5-5-5-|6-5-5-5-6-5-5-5-|
A|5-5-5-5-5-5-5-5-|0-0-0-0-0-0-0-0-|5-5-5-5-5-5-5-5-|6-5-5-5-6-5-5-5-|
D|5-5-5-5-5-5-5-5-|0-0-0-0-0-0-0-0-|5-5-5-5-5-5-5-5-|6-5-5-5-6-5-5-5-|
 |                                                                   |
D|5-5-5-5-5-5-5-5-|0-0-0-0-0-0-0-0-|5-5-5-5-5-5-5-5-|5-5-5-5-5-5-5-5-|
A|5-5-5-5-5-5-5-5-|0-0-0-0-0-0-0-0-|5-5-5-5-5-5-5-5-|5-5-5-5-5-5-5-5-|
D|5-5-5-5-5-5-5-5-|0-0-0-0-0-0-0-0-|5-5-5-5-5-5-5-5-|5-5-5-5-5-5-5-5-|
 |                                                                   |
C|C---c---C---c---|C---c---C---c---|C---c---C---c---|C---C---C---c---|
S|--------x-------|--------x-------|--------x-------|--------x-------|
B|x---------------|x-x-------------|x-x-------------|x-x-------------|
  >

e|----------------|----------------|----------------|----------------|
B|----------------|----------------|----------------|----------------|
G|----------------|----------------|l2l2l2l2l2l2l2l2|l2l2l2l2l2l2l2l2|
D|5-5-5-5-5-5-5-5-|l2l2l2l2l2l2l2l2|l2l2l2l2l2l2l2l2|l2l2l2l2l2l2l2l2|
A|5-5-5-5-5-5-5-5-|l2l2l2l2l2l2l2l2|l0l0l0l0l0l0l0l0|l1l1l1l1l1l1l1l1|
D|5-5-5-5-5-5-5-5-|0-0-0-0-0-0-0-0-|----------------|----------------|
 |                                                                   |
D|5-5-5-5-5-5-5-5-|0-0-0-0-0-0-0-0-|5-5-5-5-5-5-5-5-|6-6-6-6-6-6-6-6-|
A|5-5-5-5-5-5-5-5-|0-0-0-0-0-0-0-0-|5-5-5-5-5-5-5-5-|6-6-6-6-6-6-6-6-|
D|5-5-5-5-5-5-5-5-|0-0-0-0-0-0-0-0-|5-5-5-5-5-5-5-5-|6-6-6-6-6-6-6-6-|
 |                                                                   |
C|C---c---C---c---|C---c---C---c---|C---c---C---c---|C---C---C---c---|
S|--------x-------|--------x-------|--------x-------|--------x-----x-|
B|x---------------|x-x-------------|x-x-------------|x---x-----------|
  >

e|----------------|----------------|----------------|----------------|
B|----------------|----------------|----------------|----------------|
G|l2l2l2l2l2l2l2l2|l2l2l2l2l2l2l2l2|l2l2l2l2l2l2l2l2|l2l2l2l2l2l2l2l2|
D|l2l2l2l2l2l2l2l2|l2l2l2l2l2l2l2l2|l2l2l2l2l2l2l2l2|l2l2l2l2l2l2l2l2|
A|l2l2l2l2l2l2l2l2|l2l2l2l2l2l2l2l2|l2l2l2l2l2l2l2l2|l2l2l2l2l2l2l2l2|
D|l2l2l2l2l2l2l2l2|l2l2l2l2l2l2l2l2|l2l2l2l2l2l2l2l2|l2l2l2l2l2l2l2l2|
 |                                                                   |
D|7-7-7-7-7-7-7-7-|7-7-7-7-7-7-7-7-|7-7-7-7-7-7-7-7-|7-7-7-7-7-7-7-7-|
A|7-7-7-7-7-7-7-7-|7-7-7-7-7-7-7-7-|7-7-7-7-7-7-7-7-|7-7-7-7-7-7-7-7-|
D|7-7-7-7-7-7-7-7-|7-7-7-7-7-7-7-7-|7-7-7-7-7-7-7-7-|7-7-7-7-7-7-7-7-|
 |                                                                   |
C|C---c---C---c---|C---c---C---c---|C---c---C---c---|C---C---C---c---|
S|--------x-------|--------x-------|--------x-------|--------x-------|
H|----------------|----------------|----------------|------------f---|
B|x-x-------------|x-x-------------|x---------------|x-x-------------|
  >
Bridge
e|--------l0------|--------l0------|--------l0------|--------l0------|
B|----l0----l0--l0|----l0----l0--l0|----l0----l0--l0|----l0----l0--l0|
G|--l0--l0----l0--|--l0--l0----l0--|--l0--l0----l0--|--l0--l0----l0--|
D|l2--------------|l2--------------|l2--------------|l2--------------|
A|----------------|----------------|----------------|----------------|
D|----------------|----------------|----------------|----------------|
 |                                                                   |
D|7~~~~~0---0---0-|--0---0---0---0-|--0---0---0---0-|--0---0---0---0-|
A|7~~~~~~~~~~~~~~~|----------------|----------------|----------------|
D|7~~~0---0---0---|0---0---0---0---|0---0---0---0---|0---0---0---0---|
 |                                                                   |
C|c---------------|----------------|----------------|----------------|
H|-------f--------|-------f--------|-------f--------|-------f--------|
B|x---------------|----------------|----------------|----------------|

Verse 2
e|--------l0------|--------l0------|------l0------l0|--------l0------|
B|----l0----l0--l0|----l1----l1--l1|----l0------l0--|----l1----l1--l1|
G|--l0--l0----l0--|--l2--l2----l2--|--l0------l1----|--l2--l2----l2--|
D|l2--------------|l2--------------|l2------l2------|l2--------------|
A|----------------|----------------|----------------|----------------|
D|----------------|----------------|----------------|----------------|
 |                                                                   |
D|0-0-------------|2-2-------------|3-3-----4-4-----|5-5-------------|
A|----------------|----------------|----------------|----------------|
D|0-0-0-0-0-0-0-0-|2-2-2-2-2-2-2-2-|3-3-3-3-4-4-4-4-|5-5-5-5-5-5-5-5-|
 |                                                                   |
C|s---------------|----------------|----------------|----------------|
S|--------x-------|--------x-------|----------------|--------x-------|
H|x---x---x---x---|%---x---x---x---|%---x---x---x---|%---x---x---x---|
B|x---------------|x-x-------------|x-x-----x-x-----|x-x-------------|


e|l0--------------|l0------l0------|--------l0------|l0--------------|
B|--l1--l1----l1--|--l1--l1--l1--l1|----l0----l0--l0|--l0--l0----l0--|
G|----l2----l2--l2|----l2------l2--|--l0--l0----l0--|----l0----l2--l2|
D|--------l2------|----------------|l2--------------|--------l1------|
A|----------------|----------------|----------------|----------------|
D|----------------|----------------|----------------|----------------|
 |                                                                   |
D|--------5-5-----|----------------|0-0-------------|--------l1l1----|
A|----------------|----------------|----------------|----------------|
D|5-5-5-5-5-5-5-5-|5-5-5-5-5-5-5-5-|0-0-0-0-0-0-0-0-|0-0-0-0-l1l1l1l1|
 |                                                                   |
C|----------------|----------------|s---------------|----------------|
S|x---------------|x-------x-------|--------x-------|x---------------|
H|x---x---%---x---|x---x---x---x---|----x---x---x---|x---x---%---x---|
B|----x---x-x-----|------------x---|x-x-------------|----x---x-x-----|


e|l2------l2------|--------l0------|l0------------l0|------l0------l0|
B|--l0--l0--l0--l0|----l0----l0--l0|--l0--l0----l0--|----l0------l0--|
G|----l2------l2--|--l0--l0----l0--|----l0----l0----|--l0------l0----|
D|----------------|l2--------------|--------l2------|l2------l2------|
A|----------------|----------------|----------------|----------------|
D|----------------|----------------|----------------|----------------|
 |                                                                   |
D|----------------|0-0-------------|--------0-0-----|0-0-----0-0-----|
A|----------------|----------------|----------------|----------------|
D|l1l1l1l1l1l1l1l1|0-0-0-0-0-0-0-0-|0-0-0-0-0-0-0-0-|0-0-0-0-0-0-0-0-|
 |                                                                   |
C|----------------|----------------|----------------|----------------|
S|x-------x-------|--------x-------|x---------------|----------------|
H|x---x---x---x---|%---x---x---x---|x---x---%---x---|x---x---%---x---|
B|------------x---|x-x-------------|----x---x-x-----|x-x-----x-x-----|


e|--------l0------|--------l0------|------l0------l0|--------l0------|
B|----l0----l0--l0|----l1----l1--l1|----l0------l0--|----l1----l1--l1|
G|--l0--l0----l0--|--l2--l2----l2--|--l0------l1----|--l2--l2----l2--|
D|l2--------------|l2--------------|l2------l2------|l2--------------|
A|----------------|----------------|----------------|----------------|
D|----------------|----------------|----------------|----------------|
 |                                                                   |
D|0-0-------------|2-2-------------|3-3-----4-4-----|5-5-------------|
A|----------------|----------------|----------------|----------------|
D|0-0-0-0-0-0-0-0-|2-2-2-2-2-2-2-2-|3-3-3-3-4-4-4-4-|5-5-5-5-5-5-5-5-|
 |                                                                   |
C|s---------------|----------------|----------------|----------------|
S|--------x-------|--------x-------|----------------|--------x-------|
H|x---x---x---x---|%---x---x---x---|%---x---x---x---|%---x---x---x---|
B|x---------------|x-x-------------|x-x-----x-x-----|x-x-------------|


e|l0--------------|l0------l0------|--------l0------|l0--------------|
B|--l1--l1----l1--|--l1--l1--l1--l1|----l0----l0--l0|--l0--l0----l0--|
G|----l2----l2--l2|----l2------l2--|--l0--l0----l0--|----l0----l2--l2|
D|--------l2------|----------------|l2--------------|--------l1------|
A|----------------|----------------|----------------|----------------|
D|----------------|----------------|----------------|----------------|
 |                                                                   |
D|--------5-5-----|----------------|0-0-------------|--------l1l1----|
A|----------------|----------------|----------------|----------------|
D|5-5-5-5-5-5-5-5-|5-5-5-5-5-5-5-5-|0-0-0-0-0-0-0-0-|0-0-0-0-l1l1l1l1|
 |                                                                   |
C|----------------|----------------|s---------------|----------------|
S|x---------------|x-------x-------|--------x-------|x---------------|
H|x---x---%---x---|x---x---x---x---|----x---x---x---|x---x---%---x---|
B|----x---x-x-----|------------x---|x-x-------------|----x---x-x-----|


e|l2------l2------|--------l0------|l0--------------|----------------|
B|--l0--l0--l0--l0|----l0----l0--l0|--l0--l0--------|----------------|
G|----l2------l2--|--l0--l0----l0--|----l0----------|----------------|
D|----------------|l2--------------|--------0x0x----|0x0x----0x0x----|
A|----------------|----------------|--------0x0x----|0x0x----0x0x----|
D|----------------|----------------|--------0x0x----|0x0x----0x0x----|
 |                                                                   |
D|----------------|0-0-------------|--------0x0x----|0x0x----0x0x----|
A|----------------|----------------|----------------|----------------|
D|l1l1l1l1l1l1l1l1|0-0-0-0-0-0-0-0-|0-0-0-0-0x0x----|0x0x----0x0x----|
 |                                                                   |
C|----------------|----------------|----------------|----------------|
S|x-------x-------|--------x-------|x---------------|----------------|
H|x---x---x---X---|X---X---o---o---|o---o--------f--|-----f-------f--|
T|----------------|----------------|--------x-x-----|x-x-----x-x-----|
B|------------x---|x-x-------------|----x---x-x-----|x-x-----x-x-----|

Chorus
e|----------------|----------------|----------------|----------------|
B|----------------|----------------|----------------|----------------|
G|----------------|----------------|----------------|----------------|
D|5-5-5-5-5-5-5-5-|4-4-4-4-4-4-4-4-|5-5-5-5-5-5-5-5-|5-5-5-5-5-5-5-5-|
A|5-5-5-5-5-5-5-5-|0-0-0-0-0-0-0-0-|5-5-5-5-5-5-5-5-|5-5-5-5-5-5-5-5-|
D|5-5-5-5-5-5-5-5-|0-0-0-0-0-0-0-0-|5-5-5-5-5-5-5-5-|5-5-5-5-5-5-5-5-|
 |                                                                   |
D|5-5-5-5-5-5-5-5-|0-0-0-0-0-0-0-0-|5-5-5-5-5-5-5-5-|5-5-5-5-5-5-5-5-|
A|5-5-5-5-5-5-5-5-|0-0-0-0-0-0-0-0-|5-5-5-5-5-5-5-5-|5-5-5-5-5-5-5-5-|
D|5-5-5-5-5-5-5-5-|0-0-0-0-0-0-0-0-|5-5-5-5-5-5-5-5-|5-5-5-5-5-5-5-5-|
 |                                                                   |
C|C---c---C---c---|C---c---C---c---|C---c---C---c---|C---C---C---c---|
S|--------x-------|--------x-------|--------x-------|--------x-------|
B|x---------------|x-x-------------|x-x-------------|x---------------|
  >

e|----------------|----------------|----------------|----------------|
B|----------------|----------------|----------------|----------------|
G|----------------|----------------|----------------|----------------|
D|5-5-5-5-5-5-5-5-|4-4-4-4-4-4-4-4-|5-5-5-5-5-5-5-5-|6-5-5-5-6-5-5-5-|
A|5-5-5-5-5-5-5-5-|0-0-0-0-0-0-0-0-|5-5-5-5-5-5-5-5-|6-5-5-5-6-5-5-5-|
D|5-5-5-5-5-5-5-5-|0-0-0-0-0-0-0-0-|5-5-5-5-5-5-5-5-|6-5-5-5-6-5-5-5-|
 |                                                                   |
D|5-5-5-5-5-5-5-5-|0-0-0-0-0-0-0-0-|5-5-5-5-5-5-5-5-|5-5-5-5-5-5-5-5-|
A|5-5-5-5-5-5-5-5-|0-0-0-0-0-0-0-0-|5-5-5-5-5-5-5-5-|5-5-5-5-5-5-5-5-|
D|5-5-5-5-5-5-5-5-|0-0-0-0-0-0-0-0-|5-5-5-5-5-5-5-5-|5-5-5-5-5-5-5-5-|
 |                                                                   |
C|C---c---C---c---|C---c---C---c---|C---c---C---c---|C---C---C---c---|
S|--------x-------|--------x-------|--------x-------|--------x-------|
B|x---------------|x-x-------------|x-x-------------|x-x-------------|
  >

e|----------------|----------------|----------------|----------------|
B|----------------|----------------|----------------|----------------|
G|----------------|----------------|l2l2l2l2l2l2l2l2|l2l2l2l2l2l2l2l2|
D|5-5-5-5-5-5-5-5-|l2l2l2l2l2l2l2l2|l2l2l2l2l2l2l2l2|l2l2l2l2l2l2l2l2|
A|5-5-5-5-5-5-5-5-|l2l2l2l2l2l2l2l2|l0l0l0l0l0l0l0l0|l1l1l1l1l1l1l1l1|
D|5-5-5-5-5-5-5-5-|0-0-0-0-0-0-0-0-|----------------|----------------|
 |                                                                   |
D|5-5-5-5-5-5-5-5-|0-0-0-0-0-0-0-0-|5-5-5-5-5-5-5-5-|6-6-6-6-6-6-6-6-|
A|5-5-5-5-5-5-5-5-|0-0-0-0-0-0-0-0-|5-5-5-5-5-5-5-5-|6-6-6-6-6-6-6-6-|
D|5-5-5-5-5-5-5-5-|0-0-0-0-0-0-0-0-|5-5-5-5-5-5-5-5-|6-6-6-6-6-6-6-6-|
 |                                                                   |
C|C---c---C---c---|C---c---C---c---|C---c---C---c---|C---C---C---c---|
S|--------x-------|--------x-------|--------x-------|--------x-----x-|
B|x---------------|x-x-------------|x-x-------------|x-x-x-----------|
  >

e|----------------|----------------|----------------|----------------|
B|----------------|----------------|----------------|----------------|
G|l2l2l2l2l2l2l2l2|l2l2l2l2l2l2l2l2|l2l2l2l2l2l2l2l2|l2l2l2l2l2l2l2l2|
D|l2l2l2l2l2l2l2l2|l2l2l2l2l2l2l2l2|l2l2l2l2l2l2l2l2|l2l2l2l2l2l2l2l2|
A|l2l2l2l2l2l2l2l2|l2l2l2l2l2l2l2l2|l2l2l2l2l2l2l2l2|l2l2l2l2l2l2l2l2|
D|----------------|----------------|----------------|----------------|
 |                                                                   |
D|7-7-7-7-7-7-7-7-|7-7-7-7-7-7-7-7-|7-7-7-7-7-7-7-7-|7-7-7-7-7-7-7-7-|
A|7-7-7-7-7-7-7-7-|7-7-7-7-7-7-7-7-|7-7-7-7-7-7-7-7-|7-7-7-7-7-7-7-7-|
D|7-7-7-7-7-7-7-7-|7-7-7-7-7-7-7-7-|7-7-7-7-7-7-7-7-|7-7-7-7-7-7-7-7-|
 |                                                                   |
C|C---c---C---c---|C---c---C---c---|C---c---C---c---|C---C---C---c---|
S|--------x-------|--------x-------|--------x-------|--------x-------|
H|----------------|----------------|----------------|------------f---|
B|x-x-------------|x-x-------------|x-x-------------|x-x-------------|
  >
Bridge
e|----improvimprov|>insert--skillz<|>insert--skillz<|>insert--skillz<|
B|----improvimprov|>-----here-----<|>-----here-----<|>-----here-----<|
G|--7bimprovimprov|>insert--skillz<|>insert--skillz<|>insert--skillz<|
D|----improvimprov|>-----here-----<|>-----here-----<|>-----here-----<|
A|--5bimprovimprov|>insert--skillz<|>insert--skillz<|>insert--skillz<|
D|----improvimprov|>-----here-----<|>-----here-----<|>-----here-----<|
 |                                                                   |
D|----------------|----------------|----------------|----------------|
A|----------------|----------------|----------------|----------------|
D|----------------|----------------|----------------|----------------|
 |                                                                   |
S|--x-x-x-x-x-x-x-|x-x-x-x-x-x-x-x-|x-x-x-x-x-x-x-x-|x-x-x-x-x-x-x-x-|
T|--x-x-x-x-x-x-x-|x-x-x-x-x-x-x-x-|x-x-x-x-x-x-x-x-|x-x-x-x-x-x-x-x-|
B|--x-------------|x---------------|x-------x-------|x-----x---------|
  <<<<       >        >       >        >     > > > > >

Extended Bridge
e|----------------|----------------|----------------|----------------|
B|----------------|----------------|----------------|----------------|
G|----------------|----------------|----------------|----------------|
D|----------------|----------------|----------------|----------------|
A|8-8-8-8-8-8-8-8-|7-7-7-7-5-5-5-5-|4-4-4-4-4-4-4-4-|2-2-2-2-4-4-4-4-|
D|----------------|----------------|----------------|----------------|
 |                                                                   |
D|0-0-0-0-0-0-0-0-|0-0-0-0-0-0-0-0-|2-2-2-2-2-2-2-2-|2-2-2-2-3-3-5-5-|
A|----------------|----------------|----------------|----------------|
D|----------------|----------------|----------------|----------------|
 |                                                                   |
S|x-x-x-x-x-x-x-x-|x-x-x-x-x-x-x-x-|x-x-x-x-x-x-x-x-|x-x-x-x-x-x-x-x-|
T|x-x-x-x-x-x-x-x-|x-x-x-x-x-x-x-x-|x-x-x-x-x-x-x-x-|x-x-x-x-x-x-x-x-|
B|x---------------|x-------x-------|x---------------|x-------x-------|
  >                >       >        >                >       >

e|----------------|----------------|----------------|----------------|
B|----------------|----------------|----------------|----------------|
G|----------------|----------------|----------------|----------------|
D|----------------|----------------|----------------|----------------|
A|5-5-5-5-5-5-5-5-|7-7-7-7-8-8-8-8-|9bdbdbdbdbdbdbdb|Ad lib slides---|
D|----------------|----------------|----------------|----------------|
 |                                                                   |
D|4-4-4-4-4-4-4-4-|4-4-4-4-4-4-4-4-|7-7-7-7-7-7-7-7-|7-7-7-7-7-7-7-7-|
A|----------------|----------------|----------------|----------------|
D|----------------|----------------|----------------|----------------|
 |                                                                   |
S|x-x-x-x-x-x-x-x-|x-x-x-x-x-x-x-x-|x-x-x-x-x-x-x-x-|x-x-x-x-x-x-x-x-|
T|x-x-x-x-x-x-x-x-|x-x-x-x-x-x-x-x-|x-x-x-x-x-x-x-x-|x-x-x-x-x-x-x-x-|
B|x---------------|x-------x-------|x---------------|x---------------|
  >                >       >        >                ><<<                >       >        >                >       >

e|----------------|----------------|----------------|----------------|
B|----------------|----------------|----------------|----------------|
G|----------------|----------------|----------------|----------------|
D|5-5-5-5-5-5-5-5-|5-5-5-5-7-7-5-5-|4-4-4-4-4-4-4-4-|0-0-0-0-0-0-0-0-|
A|----------------|----------------|----------------|----------------|
D|----------------|----------------|----------------|----------------|
 |                                                                   |
D|----------------|----------------|----------------|----------------|
A|0-0-0-0-0-0-0-0-|0-0-0-0-0-0-0-0-|0-0-0-0-0-0-0-0-|0-0-0-0-0-0-0-0-|
D|----------------|----------------|----------------|----------------|
 |                                                                   |
S|x-x-x-x-x-x-x-x-|x-x-x-x-x-x-x-x-|x-x-x-x-x-x-x-x-|x-x-x-x-x-x-x-x-|
T|x-x-x-x-x-x-x-x-|x-x-x-x-x-x-x-x-|x-x-x-x-x-x-x-x-|x-x-x-x-x-x-x-x-|
B|x---------------|----------------|----------------|x---------------|
  >                >       >        >                > > > > > > > >

Outro
e|----------------|----------------|----------------|----------------|
B|----------------|----------------|----------------|----------------|
G|----------------|----------------|----------------|----------------|
D|----------------|----------------|----------------|----------------|
A|5-4-3-0---------|--------0---3-4-|5-4-3-0---------|--------0---3-4-|
D|--------6-5-3-0-|3-0-5-6---3-----|--------6-5-3-0-|3-0-5-6---3-----|
 |                                                                   |
D|----------------|----------------|----------------|----------------|
A|----------------|----------------|----------------|----------------|
D|----------------|----------------|----------------|----------------|
 |                                                                   |
C|C---c---c---c---|c---c---c---c---|C---c---c---c---|c---c---c---c---|
S|----x---x---x---|----x---x---x---|----x---x---x---|----x---x---x---|
B|x---------x-----|x-x-------x-----|x---------x-----|x-x-------x-----|


e|----------------|----------------|----------------|----------------|
B|----------------|----------------|----------------|----------------|
G|----------------|----------------|----------------|----------------|
D|----------------|----------------|----------------|----------------|
A|5-4-3-0---------|--------0---3-4-|5-4-3-0---------|--------0---3-4-|
D|--------6-5-3-0-|3-0-5-6---3-----|--------6-5-3-0-|3-0-5-6---3-----|
 |                                                                   |
D|----------------|----------------|----------------|----------------|
A|5-4-3-0---------|--------0---3-4-|5-4-3-0---------|--------0---3-4-|
D|--------6-5-3-0-|3-0-5-6---3-----|--------6-5-3-0-|3-0-5-6---3-----|
 |                                                                   |
C|C---c---c---c---|c---c---c---c---|C---c---c---c---|c---c---c---c---|
S|----x---x---x---|----x---x---x---|----x---x---x---|----x---x---x---|
B|x---------x-----|x-x-------x-----|x---------x-----|x-x-------x-----|
  >


e|----------------|----------------|----------------|----------------|
B|----------------|----------------|----------------|----------------|
G|----------------|----------------|----------------|----------------|
D|----------------|----------------|----------------|----------------|
A|5-4-3-0---------|5-4-3-0---------|5-4-3-0---------|5-4-3-0---------|
D|--------6-5-3-0-|--------6-5-3-0-|--------6-5-3-0-|--------weeweew!|
 |                                                                   |
D|----------------|----------------|----------------|----------------|
A|----------------|----------------|----------------|----------------|
D|----------------|----------------|----------------|----------------|
 |                                                                   |
C|C---------------|----------------|----------------|----------------|
B|x---------------|----------------|----------------|----------------|


e|----------------|----------------|----------------|----------------|
B|----------------|----------------|----------------|----------------|
G|----------------|----------------|----------------|----------------|
D|----------------|----------------|----------------|----------------|
A|5-4-3-0---------|5-4-3-0---------|5-4-3-0---------|5-4-3-0---------|
D|--------6-5-3-0-|--------6-5-3-0-|--------6-5-3-0-|--------6-5-3-0-|
 |                                                                   |
D|----------------|----------------|----------------|----------------|
A|5-4-3-0---------|5-4-3-0---------|5-4-3-0---------|5-4-3-0---------|
D|--------6-5-3-0-|--------6-5-3-0-|--------6-5-3-0-|--------6-5-3-0-|
 |                                                                   |
C|C---c---c---c---|c---c---c---c---|c---c---c---c---|c---c---c---c---|
S|--------x-------|--------x-------|--------x-------|--------x-------|
B|x---------------|x-x-------------|x---------------|x-x-------------|


e|----------------|----------------|----------------|----------------|
B|----------------|----------------|----------------|----------------|
G|----------------|----------------|----------------|----------------|
D|----------------|----------------|----------------|----------------|
A|5-4-3-0---------|5-4-3-0---------|5-4-3-0---------|5-4-3-0---------|
D|--------6-5-3-0-|--------6-5-3-0-|--------6-5-3-0-|--------6-5-3-0-|
 |                                                                   |
D|----------------|----------------|----------------|----------------|
A|5-4-3-0---------|5-4-3-0---------|5-4-3-0---------|5-4-3-0---------|
D|--------6-5-3-0-|--------6-5-3-0-|--------6-5-3-0-|--------6-5-3-0-|
 |                                                                   |
C|C---c---c---c---|c---c---c---c---|c---c---c---c---|c---c---c---c---|
S|--------x-------|--------x-------|--------x-------|--------x---x---|
B|x---------------|x-x-------------|x---------------|x-x-------x-----|


e|------------|
B|------------|
G|------------|
D|0x-0x-0x-0x-|
A|0x-0x-0x-0x-|
D|0x-0x-0x-0x-|
 |            |
D|0x-0x-0x-0x-|
A|0x-0x-0x-0x-|
D|0x-0x-0x-0x-|
 |            |
C|#--#--#--#--|
B|x--x--x--x--|
comments
We did not receive enough feedback on this tab! Please rate:
1 2 3 4 5
I want to post or [tab]
guest
You may want to rate the tab now too:
select rating
Please do not post tabs as comments. Select "correction" instead!